Senses Fail - Dreaming A Reality Chords & Tabs

 

Dreaming A Reality Chords & Tabs

Senses Fail Chords & Tabs

Version: 1 Type: Tab 2 ratings
1 star 2 stars 3 stars 4 stars 5 stars
comments

Dreaming A Reality Tab

Tabbed by: Adam

I wanna let all you guys know that I just wrote down the tabs and you guys
Just figure out the strumming on your own. It's simple. 

Drop your D tuning...
[ Tab from: http://www.guitartabs.cc/tabs/s/senses_fail/dreaming_a_reality_tab.html ]
e|--------------------------------------------------------------------|
B|--------------------------------------------------------------------|
G|--------------------------------------------------------------------|
D|------7-----6-------------------------7-----6-------------------6---|
A|----4-----4-----4-7-----7-----7-----4-----4-----4-7-----7-----7-----|
E|--4-----4-----4-----4-4---4-4---4-4-----4-----4-----4-4---4-4-----4-|

e|--------------------------------------------------------------------|
B|--------------------------------------------------------------------|
G|--------------------------------------------------------------------|
D|------7-----6-------------------------7-----6-----------------------|
A|----0-----0-----0-7----7-----7------0-----0-----0-7-----7-----7-----|
E|--0-----0-----0----0-0---0-0---0--0-----0-----0-----0-0---0-0---0---| 
Comments