Senses Fail - Bloody Romance Chords & Tabs

 

Bloody Romance Chords & Tabs

Senses Fail Chords & Tabs

Version: 1 Type: Tab 0 ratings
1 star 2 stars 3 stars 4 stars 5 stars
comments

Bloody Romance Tab

By: Kyle Woodward

Intro Guitar 1...Clean palm mute 
e|----------------------------------------------------------------- 
B|--10---8--11-------------10---8---------------------------------- 
G|--10--10--10--x3-then..--10--10---------------------------------- 
D|----------------------------------------------------------------- 
A|----------------------------------------------------------------- 
D|----------------------------------------------------------------- 

Guitar 2 
e|----------------------------------------------------------------- 
B|----------------------------------------------------------------- 
G|----------------------------------------------------------------- 
D|--7------3-----5------------------------------------------------- 
A|--5------1-----3------------------------------------------------- 
D|----------------------------------------------------------------- 

guitar 2 
e|----------------------------------------------------------------- 
B|----------------------------------------------------------------- 
G|--7-7----3-3----5-5---------------------------------------------- 
D|--7-7----3-3----5-5---------------------------------------------- 
A|--5-5----1-1----3-3---------------------------------------------- 
D|----------------------------------------------------------------- 


Guitar 1..Distored...open...x2..find picking rythm yourself 
e|----------------------------------------------------------------- 
B|--10---8---11---10-10-10---8------------------------------------- 
G|--10--10---10---10-10-10--10------------------------------------- 
D|----------------------------------------------------------------- 
A|----------------------------------------------------------------- 
D|----------------------------------------------------------------- 

Guitar 2..again find rythm yourself x2 
e|----------------------------------------------------------------- 
B|----------------------------------------------------------------- 
G|-------3----5---------------------------------------------------- 
D|--0----3----5----3-3-32------------------------------------------ 
A|--0----1----3----3-3-32------------------------------------------ 
D|--0--------------3-3-32------------------------------------------ 


Verse x2 both guitars 
e|----------------------------------------------------------------- 
B|----------------------------------------------------------------- 
G|--------------------33333333--3333333--5------------------------- 
D|--0000000--0000000--33333333--3333333--5------------------------- 
A|--0000000--0000000--11111111--1111111--3------------------------- 
D|--0000000--0000000----------------------------------------------- 
(PM...............................) Last Chord open 
"Life is floating..." 

[ Tab from: http://www.guitartabs.cc/tabs/s/senses_fail/bloody_romance_tab.html ]
Pre Chorus Guitar 2 x2 
e|----------------------------------------------------------------- 
B|----------------------------------------------------------------- 
G|-------3----5----------3----5------------------------------------ 
D|--0----3----5-----0----3----5---3-3-32--------------------------- 
A|--0----1----3-----0----1----3---3-3-32--------------------------- 
D|--0---------------0-------------3-3-32--------------------------- 
"From the moment you left..." 

Pre Chorus Guitar 1 x1 
e|----------------------------------------------------------------- 
B|--10---8---11------10-10-10---8---------------------------------- 
G|--10--10---10-x3---10-10-10--10---------------------------------- 
D|----------------------------------------------------------------- 
A|----------------------------------------------------------------- 
D|----------------------------------------------------------------- 
"The feeling inside..." 

Chorus x2...Guitar 2 
e|----------------------------------------------------------------- 
B|----------------------------------------------------------------- 
G|-------3---------5----------------------------------------------- 
D|--0----3----3----5----------------------------------------------- 
A|--0----1----3----3----------------------------------------------- 
D|--0---------3---------------------------------------------------- 

Guitar 1 
e|----------------------------------------------------------------- 
B|----------------------------------------------------------------- 
G|--10---12----14--10-9-10------14---12--10----17--15-14----------- 
D|--x----x-----x----x-x--x------x----x----x----x---x--x------------ 
A|--8----10----12---8-7--8------12---10---8----15--13-12----------- 
D|----------------------------------------------------------------- 
"You and me..." 

Verse x2 
Pre Chorus x2 
Chorus x2 

Breakdown Guitar 1 
e|----------------------------------------------------------------- 
B|--10---8----10---8----10---8----10--11--------------------------- 
G|--10--10----10--10----10--10----10--10--------------------------- 
D|----------------------------------------------------------------- 
A|----------------------------------------------------------------- 
D|----------------------------------------------------------------- 

Breakdown guitar 2 
e|----------------------------------------------------------------- 
B|----------------------------------------------------------------- 
G|-----3----------------------------------------------------------- 
D|-0---3--3--2----------------------------------------------------- 
A|-0---1--3--2----------------------------------------------------- 
D|-0------3--2----------------------------------------------------- 
"Back into i thought..." 

I havent figured out the last part completely but this is about 90% correct
Comments