Senses Fail - Bloody Romance Chords & Tabs

 

Bloody Romance Chords & Tabs

Senses Fail Chords & Tabs

Version: 2 Type: Bass Tab 0 ratings
1 star 2 stars 3 stars 4 stars 5 stars
comments

Bloody Romance Bass Tab

   
Tuning: Drop D (g,D,a,D)

ok NO ONE NOS HOW THE INTRO GOES!!! and neither do i but ik its not what i have

Intro
|---------------|
|---------------|
|---rest--------|
|----------15\\\| [ Tab from: http://www.guitartabs.cc/tabs/s/senses_fail/bloody_romance_btab_ver_2.html ]
Pre Chorus (once again no1 nos the last part and neither do i but i no its not right)
|-------------|-------------|-------------|-----------------|
|-------------|-------------|-------------|-3p2-3p2-3p2-3p2-|
|-------------|1-1-01-1-1-1-|3-3-33-3-3-3-|3---3---3---3----|
|0-0-00-0-0-0-|-------------|-------------|-----------------|

|-------------|-------------|-------------|-------------|
|-------------|-------------|-------------|--2x3h5p3----|
|-------------|1-1-01-1-1-1-|3-3-33-3-3-3-|3x-----------|
|0-0-00-0-0-0-|-------------|-------------|-------------|

Chorus x2

Bridge (or solo w/e)
|--------|
|--------|
|--------|
|0~~~~~~~|

|-------------|-------------|-------------|-------------|
|-------------|-------------|-------------|-------------|
|-------------|1-1-11-1-1-1-|-------------|-------------| x3
|0-0-00-0-0-0-|-------------|3-3-33-3-3-3-|2-2-22-2-2-2-|

|-------------|-------------|-------------|-------------|
|-------------|-------------|-------------|-------------|
|-------------|1-1-11-1-1-1-|-------------|-------------| x1
|0-0-00-0-0-0-|-------------|3-3-33-3-3-3-|2-2-23h5-3-2-|

Outro
|-------------|-------------|----------|------------|
|----------2h3|----------3p2|----------|------------|
|-------------|1111-1111----|----------|------------|
|0000-0000----|-------------|3333-3333-|2222-2222-32|

|-------------|----2-3-2-3-2|----------|------------|
|----------3p2|-------------|----------|------------|
|-------------|1111---------|----------|------------| this prt only x2
|0000-0000----|-------------|3333-3333-|2222-2222-32|

|-------------|----2-3---3--|----------|------------|
|----------3p2|-------------|----------|------------|
|-------------|1111----1---1|----------|------------|
|0000-0000----|-------------|3333-3333-|2222-2222-32|

End
|--------|
|--------|
|--------|
|0~~~~~~~|

so theres some parts i could get and some i couldnt so sry for that
ill try figurin them out later
Comments