Senses Fail - Bloody Romance Chords & Tabs

 

Bloody Romance Chords & Tabs

Senses Fail Chords & Tabs

Version: 1 Type: Bass Tab 0 ratings
1 star 2 stars 3 stars 4 stars 5 stars
comments

Bloody Romance Bass Tab

********Senses Fail- Bloody Romance********
this is a great song and its hella fun to play
This is similar to another tab i just modified it and put times in
Drop D Tuning
 
Intro Part 1: (:16) 1x
G|----------------------------------------------------------------------|
D|----------------------------------------------3p2--3p2--3p2--3p2-3/5--|
A|----------------1111-0h1-1--0h1-1-3333-----3----3----3----3-----------
D|--15\00000000---------------------------------------------------------|
 
Intro part 2: (:24) 2x
G|------------------------------------------|
D|------------------------------------------|
A|-----------11111111--33333333-3x3x3x3x----|
D|--00000000--------------------------------|
 

Verse: (:39) 2x
G|---------------------------------------------|
D|---------------------------------------------|
A|-----------------------1111-1111-1111-1111-1-|
D|--0000-0000-0000-0000------------------------|
 
[ Tab from: http://www.guitartabs.cc/tabs/s/senses_fail/bloody_romance_btab.html ]
Pre Chorus: (:54) 1x
G|----------------------------------------|
D|----------------------------------------|
A|------------11111111--3333333333333333--|
D|--00000000------------------------------|
            (1:01) 1x
G|------------------------------------------|
D|------------------------------------------|
A|------------11111111--33333333-3x-3x-3x-3x|
D|--00000000--------------------------------|
 
Chorus: (1:08) 2X
G|--------------------------------------------------|
D|--------------------------------------------------|
A|--------------------11111111--1h3--1p0--1h3--1p0--|
D|--0000000000000000--------------------------------|
 
G|--------------------------------------------------|
D|--------------------------------------------------|
A|--------------------11111111--1h3--1p0--1h3--1p0--|
D|--3333333333333333--------------------------------|
 
Verse: (1:38) 2x
G|---------------------------------------------|
D|---------------------------------------------|
A|-----------------------1111-1111-1111-1111-1-|
D|--0000-0000-0000-0000------------------------|
 
Pre Chorus: (1:52) 1x
G|---------------------------------------------------|
D|-----------------------------3p2---3p2---3p2---3p2-|
A|------------11111111--3333-3-----3-----3-----3-----|
D|--00000000-----------------------------------------|
            (2:00) 1x
G|------------------------------------------|
D|------------------------------------------|
A|------------11111111--33333333-3x-3x-3x-3x|
D|--00000000--------------------------------|
 
Chorus: (2:07) 2X
G|--------------------------------------------------|
D|--------------------------------------------------|
A|--------------------11111111--1h3--1p0--1h3--1p0--|
D|--0000000000000000--------------------------------|
 
G|--------------------------------------------------|
D|--------------------------------------------------|
A|--------------------11111111--1h3--1p0--1h3--1p0--|
D|--3333333333333333--------------------------------|
 
Bridge: (2:36) 1x                              3x
G|--------------------------------------------|-----------------------------------------|
D|--------------------------------------------|-----------------------------------------|
A|--------------11111111----------------------|-----------11111111----------------------|
D|-0--00000000------------33333333--22222222--|--00000000----------33333333--22222222---|
        (3:12) 1x
G|--------------------------------------------------|
D|-----------2h3------------3p2---------------------|
A|----------------1111-1111-------------------------|
D|--0000-0000-------------------3333-3333-2222-2222-|
 
(3:19) 2x
G|---------------------------------------------------------------|
D|-----------2h3-------------------------------------------------|
A|----------------1111---1h3--1p0--1h3--1p0----------------------|
D|--0000-0000-------------------------------3333-3333--2222-2222-|
 
(3:33) 1x
G|--------------------------------------------------|
D|-----------2h3------------3p2---------------------|
A|----------------1111-1111-------------------------|
D|--0000-0000-------------------3333-3333-2222-2222-|
 
End (3:40)
G|---------|
D|---------|
A|---------|
D|-0-------|
Comments