Senses Fail - Bastard Son Chords & Tabs

 

Bastard Son Chords & Tabs

Senses Fail Chords & Tabs

Version: 1 Type: Tab 0 ratings
1 star 2 stars 3 stars 4 stars 5 stars
comments

Bastard Son Tab

   
SENSES FAIL
BASTARD SON
J DIZZLE
****************************************************************************
I'm suprised no one has tabbed this on here before, and I haven't heard the song in a 
but I think this intro is pretty correct.
****************************************************************************
DROP D TUNING
****************************************************************************
Guitar 1
E|----------5---------------------|
B|-7----7-----7---5-----5---5h7---|
G|-7--7---7-----7---7-7---7-----7-| Repeat
D|--------------------------------|
A|--------------------------------|
D|--------------------------------|
[ Tab from: http://www.guitartabs.cc/tabs/s/senses_fail/bastard_son_tab.html ]
Guitar 2
E|-----------------------------------------------------|
B|-----------------------------------------------------|
G|-----------------------------------------------------|
D|-0-0-0--------9-9-9--------5-5-5---------5-5-5-----5-|
A|-0-0-0--------9-9-9--------5-5-5---------5-5-5-----5-|
D|-0-0-0--------9-9-9--------5-5-5---------5-5-5-----5-|
PM . .          . .          . .           . .

E|-------------------------------------------------------------------|
B|-------------------------------------------------------------------|
G|-------------------------------------------------------------------|
D|-0-0000000000000-9-9999999999999-5-5555555555555-5-555555555555555-|
A|-0-0000000000000-9-9999999999999-5-5555555555555-5-555555555555555-|
D|-0-0000000000000-9-9999999999999-5-5555555555555-5-555555555555555-| Repeat
Comments