Senseless Things - Too Much Kissing Chords & Tabs

 

Too Much Kissing Chords & Tabs

Senseless Things Chords & Tabs

Version: 2 Type: Tab 0 ratings
1 star 2 stars 3 stars 4 stars 5 stars
comments

Too Much Kissing Tab

   
#----------------------------------PLEASE NOTE---------------------------------#
#This file is the author's own work and represents their interpretation of the #
#song. You may only use this file for private study, scholarship, or research. #
#------------------------------------------------------------------------------##
 <1148.199402251505@solb3.central.susx.ac.uk>
From: scuw5@central.sussex.ac.uk
 jamesb@nevada.edu
Date: Fri, 25 Feb 1994 15:05:01 +0000 (GMT)
X-Mailer: ELM [version 2.4 PL23]
Content-Type: text
Content-Length: 2949

Tab for 'Too Much Kissing'by SENSELESS THINGS from the 'Postcard CV' LP

=-=-=-=-=-=-=-=-
Too Much Kissing
-=-=-=-=-=-=-=-=

Riff #1

G-----2---------2-|
D---2-------2h4---|
A-0-----0-0-------|

Riff #2

G-4-2---------|
D-----4-2-0---|
A-----------4-|

Riff #3

G-4-sl-6-sl-2-sl-4-sl-6-

For the intro, and the 'Chorus' sections (i.e. the instrumental bits
between the verses) play the following:

Riff #1 x3
Riff #2
Riff #1 x3
Riff #3

The verses are as follows (chugged i.e. RH muted power chords):

   A
We don't get the time now

   F#
Feeling like we're exiles

   E
Waiting by the corner

   D
Think you'd better walk on

We don't get the time now
Feeling like we're exiles
And if you don't know where you're going
There's no way of knowing what's going wrong

(Chorus)

The older that you get
The more goes unsaid
I should have picked you up on that
But it's easier just to lie back

The older that you get
The more goes unsaid
I should have picked you up on that
But it's easier just to lie back on your own

(Chorus)

We don't get the time now
We don't get the time now
We don't get the time now
Oh no
[ Tab from: http://www.guitartabs.cc/tabs/s/senseless_things/too_much_kissing_tab_ver_2.html ]
We don't get the time now
We don't get the time now
We don't get it
We don't get the time now

(Solo)


If you have two guitarists, one plays the instrumental 'Chorus' section
under the solo.

e-------------------------------------------------------|
B-2-3-5-5h7-5-----5-5h7-5---------------------5---------|
G-------------7-6---------7-6-7-6h7p6---7-6-7---7-6h7p6-|
D-------------------------------------7-----------------|
A-------------------------------------------------------|
E-------------------------------------------------------|

e-----------------------------5------------------------------------|
B-5-5-------5-5-----5-5h7-5-7---7-5-7-5-----5-5--------------------|
G-----7-6-------7-6---------------------7-6-----7-6----------------|
D---------7-----------------------------------------7-----7h9p7----|
A-----------------------------------------------------7h9--------9-|
E------------------------------------------------------------------|

e----------12----------------------------------12-------------9-|
B-7-5-sl-7----10-10-10----10----10-10-10----10----10-10-10------|
G----------------------11----11----------11----------------11---|
D---------------------------------------------------------------|
A---------------------------------------------------------------|
E---------------------------------------------------------------|

e-10p9h10p9----0-2-0-|
B-----------10-------|
G--------------------|
D--------------------|
A--------------------|
E--------------------|

(Quiet bit, Bass solo which I haven't transcribed)

LOUD ENDING (same chords as for verse, but let 'em ring loud)

And if you've
Got imagination
You'll just grow jealous
And say that's all too much

Well I hope I still believe
That this room
Ain't the place that I'll always return

Finish on A

Jon Eyre (1994) Anybody fancy tabbing 'Little Green Bag' from Reservoir
Dogs?
Comments