Send More Paramedics - Zombified Chords & Tabs

 

Zombified Chords & Tabs

Send More Paramedics Chords & Tabs

Version: 1 Type: Tab 0 ratings
1 star 2 stars 3 stars 4 stars 5 stars
comments

Zombified Tab

ZOMBIFIED (guitar)


the tuning is all strings down a semi-tone and then the sixth string down an extra whole tone.




   PM  = palm mute
   h/o = hammer on
   p/o = pull off
   n/h = natural harmonic
   x   = left hand mute
   w/b = whammy bar (> = quick dip) (\ = dive)
   p/h = pinch harmonic




   |1-------&-------2-------&-------|3-------&-------4-------&-------|

            PM          PM---|           PM-------|          PM---|

Eb |--------------------------------|--------------------------------|
Bb |--------------------------------|--------------------------------|
Gb |7-----------7---------------7---|----------------7---------------|
Db |7-----------7---------------7---|----------------7---------------|
Ab |5-------5---5-------5---5---5---|----5---5---5---5-------5---5---|
Db |--------------------------------|--------------------------------|




   |1-------&-------2-------&-------|3-------&-------4-------&-------|

        PM              PM---|           PM---|          PM

Eb |--------------------------------|--------------------------------|
Bb |--------------------------------|--------------------------------|
Gb |7-------7-------7-----------7---|------------7-----------7-------|
Db |7-------7-------7-----------7---|------------7-----------7-------|
Ab |5---5---5-------5---5---5---5---|----5---5---5-------5---5-------|
Db |--------------------------------|--------------------------------|




   |1-------&-------2-------&-------|3-------&-------4-------&-------|

                                                                 h/o

Eb |--------------------------------|--------------------------------|
Bb |--------------------------------|--------------------------------|
Gb |--------------------------------|--------------------------------|
Db |--------------------------------|------------3-------------------|
Ab |--------5---4-------0---4---3---|----0---2-----------------------|
Db |0-------------------------------|----------------3-------0-^(1)--|




   |1-------&-------2-------&-------|3-------&-------4-------&-------|

        p/o     PM-|        PM           PM---|          PM

Eb |--------------------------------|--------------------------------|
Bb |--------------------------------|--------------------------------|
Gb |--------------------------------|--------------------------------|
Db |--------------------------------|--------------------------------|
Ab |--------------------------------|--------------------------------|
Db |1-^(0)--0---0-0-6-/-7---0---10--|----0-0-0---9-------0---8-------|




   |1-------&-------2-------&-------|3-------&-------4-------&-------|

                                                                 h/o

Eb |--------------------------------|--------------------------------|
Bb |--------------------------------|--------------------------------|
Gb |--------------------------------|--------------------------------|
Db |--------------------------------|------------3-------------------|
Ab |--------5---4-------0---4---3---|----0---2-----------------------|
Db |0-------------------------------|----------------3-------0-^(1)--|




   |1-------&-------2-------&-------|3-------&-------4-------&-------|

        p/o     PM-|        PM           PM---|          PM

Eb |--------------------------------|--------------------------------|
Bb |--------------------------------|--------------------------------|
Gb |--------------------------------|--------------------------------|
Db |--------------------------------|--------------------------------|
Ab |--------------------------------|--------------------------------|
Db |1-^(0)--0---0-0-6-/-7---0---10--|----0-0-0---9-------0---8-------|




   |1-------&-------2-------&-------|3-------&-------4-------&-------|

    PM------------------------------|hold

Eb |--------------------------------|--------------------------------|
Bb |--------------------------------|--------------------------------|
Gb |--------------------------------|--------------------------------|
Db |----------|

    PM---------------------------------------------------------------|

Eb |--------------------------------|--------------------------------|
Bb |--------------------------------|--------------------------------|
Gb |--------------------------------|--------------------------------|
Db |--------------------------------|--------------------------------|
Ab |------------------------7-7-7-7-|------------------------6-6-6-6-|
Db |0-0-0-0-5-5-5-5-4-4-4-4---------|7-7-7-7-6-6-6-6-5-5-5-5---------|




   |1-------&-------2-------&-------|3-------&-------4-------&-------|

    PM---------------------------------------------------------------|

Eb |--------------------------------|--------------------------------|
Bb |--------------------------------|--------------------------------|
Gb |---------------------&-------4-------&-------|

    PM---------------------------------------------------------------|

Eb |--------------------------------|--------------------------------|
Bb |--------------------------------|--------------------------------|
Gb |--------------------------------|--------------------------------|
Db |--------------------------------|--------------------------------|
Ab |------------------------7-7-7-7-|------------------------6-6-6-6-|
Db |0-0-0-0-5-5-5-5-4-4-4-4---------|7-7-7-7-6-6-6-6-5-5-5-5---------|




   |1-------&-------2-------&-------|3-------&-------4-------&-------|

    PM---------------------------------------------------------------|

Eb |--------------------------------|--------------------------------|
Bb |--------------------------------|--------------------------------|
Gb |--------------------------------|--------------------------------|
Db |--------------------------------|--------------------------------|
Ab |------------------------7-7-7-7-|------------------------6-6-6-6-|
Db |0-0-0-0-5-5-5-5-4-4-4-4---------|7-7-7-7-6-6-6-6-5-5-5-5---------|




   |1-------&-------2-------&-------|3-------&-------4-------&-------|

    PM---------------------------------------------------------------|

Eb |--------------------------------|--------------------------------|
Bb |--------------------------------|--------------------------------|
Gb |--------------------------------|--------------------------------|
Db |--------------------------------|--------------------------------|
Ab |------------------------7-7-7-7-|------------------------6-6-6-6-|
Db |0-0-0-0-5-5-5-5-4-4-4-4---------|7-7-7-7-6-6-6-6-5-5-5-5---------|




   |1-------&-------2-------&-------|3-------&-------4-------&-------|

    PM---------------------------------------------------------------|

Eb |--------------------------------|--------------------------------|
Bb |--------------------------------|--------------------------------|
Gb |--------------------------------|--------------------------------|
Db |--------------------------------|--------------------------------|
Ab |------------------------7-7-7-7-|------------------------6-6-6-6-|
Db |0-0-0-0-5-5-5-5-4-4-4-4---------|7-7-7-7-6-6-6-6-5-5-5-5---------|




   |1-------&-------2-------&-------|3-------&-------4-------&-------|

    hold                                                 PM-------|

Eb |0-------------------------------|--------------------------------|
Bb |9-------------------------------|--------------------------------|
Gb |11------------------------------|--------------------------------|
Db |0-------------------------------|--------------------------------|
Ab |0-------------------------------|--------------------------------|
Db |0-------------------------------|--------------------0---0---0---|




   |1-------&-------2-------&-------|3-------&-------4-------&-------|

    hold                                                 PM-------|

Eb |0-------------------------------|--------------------------------|
Bb |0-------------------------------|--------------------------------|
Gb |3-------------------------------|--------------------------------|
Db |2-------------------------------|--------------------------------|
Ab |2-------------------------------|--------------------------------|
Db |x-------------------------------|--------------------0---0---0---|




   |1-------&-------2-------&-------|3-------&-------4-------&-------|

    hold                                                 PM-------|

Eb |0-------------------------------|--------------------------------|
Bb |0-------------------------------|--------------------------------|
Gb |x-------------------------------|--------------------------------|
Db |4-------------------------------|--------------------------------|
Ab |4-------------------------------|--------------------------------|
Db |4-------------------------------|--------------------0---0---0---|




   |1-------&-------2-------&-------|3-------&-------4-------&-------|

    hold                                                 PM-------|

Eb |0-------------------------------|--------------------------------|
Bb |0-------------------------------|--------------------------------|
Gb |x-------------------------------|--------------------------------|
Db |8-------------------------------|--------------------------------|
Ab |8-------------------------------|--------------------------------|
Db |8-------------------------------|--------------------0---0---0---|




   |1-------&-------2-------&-------|3-------&-------4-------&-------|

    hold                                                 PM-------|

Eb |0-------------------------------|--------------------------------|
Bb |9-------------------------------|--------------------------------|
Gb |11------------------------------|--------------------------------|
Db |0-------------------------------|--------------------------------|
Ab |0-------------------------------|--------------------------------|
Db |0-------------------------------|--------------------0---0---0---|




   |1-------&-------2-------&-------|3-------&-------4-------&-------|

    hold                                                 PM-------|

Eb |0-------------------------------|--------------------------------|
Bb |0-------------------------------|--------------------------------|
Gb |3-------------------------------|--------------------------------|
Db |2-------------------------------|--------------------------------|
Ab |2-------------------------------|--------------------------------|
Db |x-------------------------------|--------------------0---0---0---|




   |1-------&-------2-------&-------|3-------&-------4-------&-------|

    hold                             n/h         w/b-----------------|

Eb |0-------------------------------|--------------------------------|
Bb |0-------------------------------|--------------------------------|
Gb |x-------------------------------|4----------->--->---\-----------|
Db |4-------------------------------|--------------------------------|
Ab |4-------------------------------|--------------------------------|
Db |4-------------------------------|--------------------------------|




   |1-------&-------2-------&-------|3-------&-------4-------&-------|

    hold

Eb |0-------------------------------|--------------------------------|
Bb |0-------------------------------|--------------------------------|
Gb |x-------------------------------|--------------------------------|
Db |8-------------------------------|--------------------------------|
Ab |8-------------------------------|--------------------------------|
Db |8-------------------------------|--------------------------------|




   |1-------&-------2-------&-------|3-------&-------4-------&-------|

    PM------------------------------|hold

Eb |--------------------------------|--------------------------------|
Bb |--------------------------------|--------------------------------|
Gb |--------------------------------|--------------------------------|
Db |--------------------------------|--------------------------------|
Ab |------------------------7-7-7-7-|--------------------------------|
Db |0-0-0-0-5-5-5-5-4-4-4-4---------|7-------------------------------|




   |1-------&-------2-------&-------|3-------&-------4-------&-------|

    PM---------------------------------------------------------------|

Eb |--------------------------------|--------------------------------|
Bb |--------------------------------|--------------------------------|
Gb |--------------------------------|--------------------------------|
Db |--------------------------------|--------------------------------|
Ab |------------------------7-7-7-7-|------------------------6-6-6-6-|
Db |0-0-0-0-5-5-5-5-4-4-4-4---------|7-7-7-7-6-6-6-6-5-5-5-5---------|




   |1-------&-------2-------&-------|3-------&-------4-------&-------|

    PM---------------------------------------------------------------|

Eb |--------------------------------|--------------------------------|
Bb |--------------------------------|--------------------------------|
Gb |--------------------------------|--------------------------------|
Db |--------------------------------|--------------------------------|
Ab |------------------------7-7-7-7-|------------------------6-6-6-6-|
Db |0-0-0-0-5-5-5-5-4-4-4-4---------|7-7-7-7-6-6-6-6-5-5-5-5---------|




   |1-------&-------2-------&-------|3-------&-------4-------&-------|

    PM---------------------------------------------------------------|

Eb |--------------------------------|--------------------------------|
Bb |--------------------------------|--------------------------------|
Gb |--------------------------------|--------------------------------|
Db |--------------------------------|--------------------------------|
Ab |------------------------7-7-7-7-|------------------------6-6-6-6-|
Db |0-0-0-0-5-5-5-5-4-4-4-4---------|7-7-7-7-6-6-6-6-5-5-5-5---------|




   |1-------&-------2-------&-------|3-------&-------4-------&-------|

    PM---------------------------------------------------------------|

Eb |--------------------------------|--------------------------------|
Bb |--------------------------------|--------------------------------|
Gb |--------------------------------|--------------------------------|
Db |--------------------------------|--------------------------------|
Ab |------------------------7-7-7-7-|------------------------6-6-6-6-|
Db |0-0-0-0-5-5-5-5-4-4-4-4---------|7-7-7-7-6-6-6-6-5-5-5-5---------|




   |1-------&-------2-------&-------|3-------&-------4-------&-------|

    PM---------------------------------------------------------------|

Eb |--------------------------------|--------------------------------|
Bb |--------------------------------|--------------------------------|
Gb |--------------------------------|--------------------------------|
Db |--------------------------------|--------------------------------|
Ab |------------------------7-7-7-7-|------------------------6-6-6-6-|
Db |0-0-0-0-5-5-5-5-4-4-4-4---------|7-7-7-7-6-6-6-6-5-5-5-5---------|




   |1-------&-------2-------&-------|3-------&-------4-------&-------|

            PM--|           PM

Eb |--------------------------------|--------------------------------|
Bb |--------------------------------|--------------------------------|
Gb |--------------------------------|--------------------------------|
Db |--------------------------------|--------------------------------|
Ab |----------------5-------0---4---|----4-------4-----------6---7---|
Db |0-------0---0-------------------|----------------8---7-----------|




   |1-------&-------2-------&-------|3-------&-------4-------&-------|

    PM-----------|

Eb |--------------------------------|--------------------------------|
Bb |--------------------------------|--------------------------------|
Gb |--------------------------------|--------------------------------|
Db |--------------------------------|----9---7---8-----------7-------|
Ab |----------------5-------0---4---|----------------7-----------6---|
Db |0---0-0-0---0-------------------|--------------------8-----------|



[ Tab from: http://www.guitartabs.cc/tabs/s/send_more_paramedics/zombified_tab.html ]
   |1-------&-------2-------&-------|3-------&-------4-------&-------|

            PM--|           PM

Eb |--------------------------------|--------------------------------|
Bb |--------------------------------|--------------------------------|
Gb |--------------------------------|--------------------------------|
Db |--------------------------------|--------------------------------|
Ab |----------------5-------0---4---|----4-------4-----------6---7---|
Db |0-------0---0-------------------|----------------8---7-----------|




   |1-------&-------2-------&-------|3-------&-------4-------&-------|

    PM-----------|

Eb |--------------------------------|--------------------------------|
Bb |--------------------------------|--------------------------------|
Gb |--------------------------------|--------------------------------|
Db |--------------------------------|----9---7---8-----------7-------|
Ab |----------------5-------0---4---|----------------7-----------6---|
Db |0---0-0-0---0-------------------|--------------------8-----------|




   |1-------&-------2-------&-------|3-------&-------4-------&-------|

            PM--|           PM

Eb |--------------------------------|--------------------------------|
Bb |--------------------------------|--------------------------------|
Gb |--------------------------------|--------------------------------|
Db |--------------------------------|--------------------------------|
Ab |----------------5-------0---4---|----4-------4-----------6---7---|
Db |0-------0---0-------------------|----------------8---7-----------|




   |1-------&-------2-------&-------|3-------&-------4-------&-------|

    PM-----------|

Eb |--------------------------------|--------------------------------|
Bb |--------------------------------|--------------------------------|
Gb |--------------------------------|--------------------------------|
Db |--------------------------------|----9---7---8-----------7-------|
Ab |----------------5-------0---4---|----------------7-----------6---|
Db |0---0-0-0---0-------------------|--------------------8-----------|




   |1-------&-------2-------&-------|3-------&-------4-------&-------|

            PM--|           PM

Eb |--------------------------------|--------------------------------|
Bb |--------------------------------|--------------------------------|
Gb |--------------------------------|--------------------------------|
Db |--------------------------------|--------------------------------|
Ab |----------------5-------0---4---|----4-------4-----------6---7---|
Db |0-------0---0-------------------|----------------8---7-----------|




   |1-------&-------2-------&-------|3-------&-------4-------&-------|

    PM-----------|

Eb |--------------------------------|--------------------------------|
Bb |--------------------------------|--------------------------------|
Gb |--------------------------------|--------------------------------|
Db |--------------------------------|----9---7---8-----------7-------|
Ab |----------------5-------0---4---|----------------7-----------6---|
Db |0---0-0-0---0-------------------|--------------------8-----------|




   |1-------&-------2-------&-------|3-------&-------4-------&-------|

    PM------------------------------|hold

Eb |--------------------------------|--------------------------------|
Bb |--------------------------------|--------------------------------|
Gb |--------------------------------|--------------------------------|
Db |--------------------------------|--------------------------------|
Ab |------------------------7-7-7-7-|--------------------------------|
Db |0-0-0-0-5-5-5-5-4-4-4-4---------|7-------------------------------|




   |1-------&-------2-------&-------|3-------&-------4-------&-------|

    PM---------------------------------------------------------------|

Eb |--------------------------------|--------------------------------|
Bb |--------------------------------|--------------------------------|
Gb |--------------------------------|--------------------------------|
Db |--------------------------------|--------------------------------|
Ab |------------------------7-7-7-7-|------------------------6-6-6-6-|
Db |0-0-0-0-5-5-5-5-4-4-4-4---------|7-7-7-7-6-6-6-6-5-5-5-5---------|




   |1-------&-------2-------&-------|3-------&-------4-------&-------|

    PM---------------------------------------------------------------|

Eb |--------------------------------|--------------------------------|
Bb |--------------------------------|--------------------------------|
Gb |--------------------------------|--------------------------------|
Db |--------------------------------|--------------------------------|
Ab |------------------------7-7-7-7-|------------------------6-6-6-6-|
Db |0-0-0-0-5-5-5-5-4-4-4-4---------|7-7-7-7-6-6-6-6-5-5-5-5---------|




   |1-------&-------2-------&-------|3-------&-------4-------&-------|

    PM---------------------------------------------------------------|

Eb |--------------------------------|--------------------------------|
Bb |--------------------------------|--------------------------------|
Gb |--------------------------------|--------------------------------|
Db |--------------------------------|--------------------------------|
Ab |------------------------7-7-7-7-|------------------------6-6-6-6-|
Db |0-0-0-0-5-5-5-5-4-4-4-4---------|7-7-7-7-6-6-6-6-5-5-5-5---------|




   |1-------&-------2-------&-------|3-------&-------4-------&-------|

    PM---------------------------------------------------------------|

Eb |--------------------------------|--------------------------------|
Bb |--------------------------------|--------------------------------|
Gb |--------------------------------|--------------------------------|
Db |--------------------------------|--------------------------------|
Ab |------------------------7-7-7-7-|------------------------6-6-6-6-|
Db |0-0-0-0-5-5-5-5-4-4-4-4---------|7-7-7-7-6-6-6-6-5-5-5-5---------|




   |1-------&-------2-------&-------|3-------&-------4-------&-------|

    PM---------------------------------------------------------------|

Eb |--------------------------------|--------------------------------|
Bb |--------------------------------|--------------------------------|
Gb |--------------------------------|--------------------------------|
Db |--------------------------------|--------------------------------|
Ab |------------------------7-7-7-7-|------------------------6-6-6-6-|
Db |0-0-0-0-5-5-5-5-4-4-4-4---------|7-7-7-7-6-6-6-6-5-5-5-5---------|




   |1-------&-------2-------&-------|3-------&-------4-------&-------|

    hold                                                 PM-------|

Eb |0-------------------------------|--------------------------------|
Bb |9-------------------------------|--------------------------------|
Gb |11------------------------------|--------------------------------|
Db |0-------------------------------|--------------------------------|
Ab |0-------------------------------|--------------------------------|
Db |0-------------------------------|--------------------0---0---0---|




   |1-------&-------2-------&-------|3-------&-------4-------&-------|

    hold                                                 PM-------|

Eb |0-------------------------------|--------------------------------|
Bb |0-------------------------------|--------------------------------|
Gb |3-------------------------------|--------------------------------|
Db |2-------------------------------|--------------------------------|
Ab |2-------------------------------|--------------------------------|
Db |x-------------------------------|--------------------0---0---0---|




   |1-------&-------2-------&-------|3-------&-------4-------&-------|

    hold                                                 PM-------|

Eb |0-------------------------------|--------------------------------|
Bb |0-------------------------------|--------------------------------|
Gb |x-------------------------------|--------------------------------|
Db |4-------------------------------|--------------------------------|
Ab |4-------------------------------|--------------------------------|
Db |4-------------------------------|--------------------0---0---0---|




   |1-------&-------2-------&-------|3-------&-------4-------&-------|

    hold                                                 PM-------|

Eb |0-------------------------------|--------------------------------|
Bb |0-------------------------------|--------------------------------|
Gb |x-------------------------------|--------------------------------|
Db |8-------------------------------|--------------------------------|
Ab |8-------------------------------|--------------------------------|
Db |8-------------------------------|--------------------0---0---0---|




   |1-------&-------2-------&-------|3-------&-------4-------&-------|

    hold                                                 PM-------|

Eb |0-------------------------------|--------------------------------|
Bb |9-------------------------------|--------------------------------|
Gb |11------------------------------|--------------------------------|
Db |0-------------------------------|--------------------------------|
Ab |0-------------------------------|--------------------------------|
Db |0-------------------------------|--------------------0---0---0---|




   |1-------&-------2-------&-------|3-------&-------4-------&-------|

    hold                                                 PM-------|

Eb |0-------------------------------|--------------------------------|
Bb |0-------------------------------|--------------------------------|
Gb |3-------------------------------|--------------------------------|
Db |2-------------------------------|--------------------------------|
Ab |2-------------------------------|--------------------------------|
Db |x-------------------------------|--------------------0---0---0---|




   |1-------&-------2-------&-------|3-------&-------4-------&-------|

    hold                             n/h         w/b-----------------|

Eb |0-------------------------------|--------------------------------|
Bb |0-------------------------------|--------------------------------|
Gb |x-------------------------------|4----------->--->---\-----------|
Db |4-------------------------------|--------------------------------|
Ab |4-------------------------------|--------------------------------|
Db |4-------------------------------|--------------------------------|




   |1-------&-------2-------&-------|3-------&-------4-------&-------|

    hold

Eb |0-------------------------------|--------------------------------|
Bb |0-------------------------------|--------------------------------|
Gb |x-------------------------------|--------------------------------|
Db |8-------------------------------|--------------------------------|
Ab |8-------------------------------|--------------------------------|
Db |8-------------------------------|----------------15\-------------|




   |1-------&-------2-------&-------|3-------&-------4-------&-------|

                                         PM---|

Eb |--------------------------------|--------------------------------|
Bb |--------------------------------|--------------------------------|
Gb |--------------------------------|--------------------------------|
Db |--------4-----------------------|----------------------------6---|
Ab |------------3-----------6---5---|------------4---3-------5-------|
Db |0-------------------3-----------|----4---3-----------------------|




   |1-------&-------2-------&-------|3-------&-------4-------&-------|

                    PM---|               n/h-----|       PM  p/h

Eb |--------------------------------|--------------------------------|
Bb |--------------------------------|--------------------------------|
Gb |--------------------------------|------------------------4-------|
Db |4-------------------------------|--------5---5-------------------|
Ab |--------------------2-------3---|----4---------------2-----------|
Db |----7---0-------3-------4-------|--------------------------------|




   |1-------&-------2-------&-------|3-------&-------4-------&-------|

                                         PM---|

Eb |--------------------------------|--------------------------------|
Bb |--------------------------------|--------------------------------|
Gb |--------------------------------|--------------------------------|
Db |--------4-----------------------|----------------------------6---|
Ab |------------3-----------6---5---|------------4---3-------5-------|
Db |0-------------------3-----------|----4---3-----------------------|




   |1-------&-------2-------&-------|3-------&-------4-------&-------|

                    PM---|               n/h-----|       PM  p/h

Eb |--------------------------------|--------------------------------|
Bb |--------------------------------|--------------------------------|
Gb |--------------------------------|------------------------4-------|
Db |4-------------------------------|--------5---5-------------------|
Ab |--------------------2-------3---|----4---------------2-----------|
Db |----7---0-------3-------4-------|--------------------------------|




   |1-------&-------2-------&-------|3-------&-------4-------&-------|

                                         PM---|

Eb |--------------------------------|--------------------------------|
Bb |--------------------------------|--------------------------------|
Gb |--------------------------------|--------------------------------|
Db |--------4-----------------------|----------------------------6---|
Ab |------------3-----------6---5---|------------4---3-------5-------|
Db |0-------------------3-----------|----4---3-----------------------|




   |1-------&-------2-------&-------|3-------&-------4-------&-------|

                    PM---|               n/h-----|       PM  p/h

Eb |--------------------------------|--------------------------------|
Bb |--------------------------------|--------------------------------|
Gb |--------------------------------|------------------------4-------|
Db |4-------------------------------|--------5---5-------------------|
Ab |--------------------2-------3---|----4---------------2-----------|
Db |----7---0-------3-------4-------|--------------------------------|




   |1-------&-------2-------&-------|3-------&-------4-------&-------|

                                         PM---|

Eb |--------------------------------|--------------------------------|
Bb |--------------------------------|--------------------------------|
Gb |--------------------------------|--------------------------------|
Db |--------4-----------------------|----------------------------6---|
Ab |------------3-----------6---5---|------------4---3-------5-------|
Db |0-------------------3-----------|----4---3-----------------------|




   |1-------&-------2-------&-------|3-------&-------4-------&-------|

                    PM---|               n/h-----|       PM  p/h

Eb |--------------------------------|--------------------------------|
Bb |--------------------------------|--------------------------------|
Gb |--------------------------------|------------------------4-------|
Db |4-------------------------------|--------5---5-------------------|
Ab |--------------------2-------3---|----4---------------2-----------|
Db |----7---0-------3-------4-------|--------------------------------|




   |1-------&-------2-------&-------|3-------&-------4-------&-------|

    PM------------------------------|

Eb |--------------------------------|--------------------------------|
Bb |--------------------------------|--------------------------------|
Gb |--------------------------------|--------------------------------|
Db |--------------------------------|--------------------------------|
Ab |--------------------------------|0-------------------------------|
Db |0-0-0-0-0-0-0-0-0-0-0-0-0-0-0-0-|0-------------------------------|
Comments