Send More Paramedics - Zombie Crew Chords & Tabs

 

Zombie Crew Chords & Tabs

Send More Paramedics Chords & Tabs

Version: 1 Type: Tab 0 ratings
1 star 2 stars 3 stars 4 stars 5 stars
comments

Zombie Crew Tab

----------------------------------------------------------------------------
		     Zombie Crew - Send More Paramedics
----------------------------------------------------------------------------
Tabbed by: Sam Johnson
Email: elcapitan@charter.net

Tuning: Drop D, then everything down  step

Zombie Crew - Send More Paramedics

VERSE
   PM--------------------------------------------------------|
Eb|--------------------------------|--------------------------------|
Bb|--------------------------------|--------------------------------|
Gb|------5-4-4-4-------------------|------5-4-4-4-------------6-6-6-|
Db|2-2-2-5-4-4-4-2-5-5-5-5-5-5-5-5-|2-2-2-5-4-4-4-2-5-5-5-5-5-6-6-6-|
Ab|2-2-2-3-2-2-2-2-5-5-5-5-5-5-5-5-|2-2-2-3-2-2-2-2-5-5-5-5-5-4-4-4-|
Db|2-2-2---------2-5-5-5-5-5-5-5-5-|2-2-2---------2-5-5-5-5-5-------|

   PM--------------------------------------------------------|
Eb|--------------------------------|--------------------------------|
Bb|--------------------------------|--------------------------------|
Gb|------5-4-4-4-------------------|------5-4-4-4-------------6-6-6-|
Db|2-2-2-5-4-4-4-2-5-5-5-5-5-5-5-5-|2-2-2-5-4-4-4-2-5-5-5-5-5-6-6-6-|
Ab|2-2-2-3-2-2-2-2-5-5-5-5-5-5-5-5-|2-2-2-3-2-2-2-2-5-5-5-5-5-4-4-4-|
Db|2-2-2---------2-5-5-5-5-5-5-5-5-|2-2-2---------2-5-5-5-5-5-------|

   PM--------------------------------------------------------|
Eb|--------------------------------|--------------------------------|
Bb|--------------------------------|--------------------------------|
Gb|------5-4-4-4-------------------|------5-4-4-4-------------6-6-6-|
Db|2-2-2-5-4-4-4-2-5-5-5-5-5-5-5-5-|2-2-2-5-4-4-4-2-5-5-5-5-5-6-6-6-|
Ab|2-2-2-3-2-2-2-2-5-5-5-5-5-5-5-5-|2-2-2-3-2-2-2-2-5-5-5-5-5-4-4-4-|
Db|2-2-2---------2-5-5-5-5-5-5-5-5-|2-2-2---------2-5-5-5-5-5-------|

ZOMBIE CREW SECTION                 PM---------------------|
Eb|--------------------------------|--------------------------------|
Bb|--------------------------------|------------------------5---5---|
Gb|------6-5-------------5-4-------|------------------------4---4---|
Db|5-----6-5-----5-4-----5-4-----3-|2-2-2-2-2-2-2-2-2-2-2-2-2-2-2---|
Ab|5-----4-3-----5-4-----3-2-----3-|2-2-2-2-2-2-2-2-2-2-2-2---2-----|
Db|5-------------5-4-------------3-|2-2-2-2-2-2-2-2-2-2-2-2---2-----|

                                    Hold----------------------------|
Eb|--------------------------------|--------------------------------|
Bb|--------------------------------|--------------------------------|
Gb|------6-5-------------5-4-------|--------------------------------|
Db|5-----6-5-----5-4-----5-4-----3-|2-------------------------------|
Ab|5-----4-3-----5-4-----3-2-----3-|2-------------------------------|
Db|5-------------5-4-------------3-|2-------------------------------|

FAST SECTION
   PM-----------------------------|
Eb|--------------------------------|---------------------------------------|
Bb|--------------------------------|---------------------------------------|
Gb|--------------------------------|-------10-9-9----------12--------------|
Db|2-2-222-2-2-222-2-2-222-2-2-222-|10-10--10-9-9--10-9-9--12-12-12--12----|
Ab|2-2-222-2-2-222-2-2-222-2-2-222-|10-10--8--7-7--10-9-9--10-12-12--12----|
Db|2-2-222-2-2-222-2-2-222-2-2-222-|10-10----------10-9-9-----12-12--12----|

   PM-----------------------------|                     
Eb|--------------------------------|---------------------------------------|
Bb|--------------------------------|---------------------------------------|
Gb|--------------------------------|--------10-9-9------12-----------------|
Db|2-2-222-2-2-222-2-2-222-2-2-222-|10-10---10-9-9---10-12-----------------|
Ab|2-2-222-2-2-222-2-2-222-2-2-222-|10-10---8--7-7---10-10-----------------|
Db|2-2-222-2-2-222-2-2-222-2-2-222-|10-10------------10--------------------|
[ Tab from: http://www.guitartabs.cc/tabs/s/send_more_paramedics/zombie_crew_tab.html ]
1st CHORUS
Eb|-----------------------------------|------------------------------------|
Bb|-----------------------------------|------------------------------------|
Gb|9-9-10-9-9-9-10-9------------------|9-9-10-9-9-9-10-9-------------------|
Db|9-9-10-9-9-9-10-9-10-12-7-9--9-9-9-|9-9-10-9-9-9-10-9-10-12-7-9---9-9-9-|
Ab|7-7-8--7-7-7-8--7-10-12-7-9--9-9-9-|7-7-8--7-7-7-8--7-10-12-7-9---9-9-9-|
Db|------------------10-12-7-9--9-9-9-|------------------10-12-7-9---9-9-9-|

                                        PM------------------------------|
Eb|------------------------------------|--------------------------------|
Bb|------------------------------------|--------------------------------|
Gb|9-9-10-9-9-9-10-9-------------------|--------------------------------|
Db|9-9-10-9-9-9-10-9-10-12-7-9---9-9-9-|7-7-7-7-7-7-7-7-5-5-5-5-5-5-5-5-|
Ab|7-7-8--7-7-7-8--7-10-12-7-9---9-9-9-|7-7-7-7-7-7-7-7-5-5-5-5-5-5-5-5-|
Db|------------------10-12-7-9---9-9-9-|7-7-7-7-7-7-7-7-5-5-5-5-5-5-5-5-|

Eb|-----------------------------------|------------------------------------|
Bb|-----------------------------------|------------------------------------|
Gb|9-9-10-9-9-9-10-9------------------|9-9-10-9-9-9-10-9-------------------|
Db|9-9-10-9-9-9-10-9-10-12-7-9--9-9-9-|9-9-10-9-9-9-10-9-10-12-7-9---9-9-9-|
Ab|7-7-8--7-7-7-8--7-10-12-7-9--9-9-9-|7-7-8--7-7-7-8--7-10-12-7-9---9-9-9-|
Db|------------------10-12-7-9--9-9-9-|------------------10-12-7-9---9-9-9-|

                                        PM---------------------|Hold----|
Eb|------------------------------------|--------------------------------|
Bb|------------------------------------|--------------------------------|
Gb|9-9-10-9-9-9-10-9-------------------|--------------------------------|
Db|9-9-10-9-9-9-10-9-10-12-7-9---9-9-9-|7-7-7-7-7-7-7-7-5-5-5-5-5-------|
Ab|7-7-8--7-7-7-8--7-10-12-7-9---9-9-9-|7-7-7-7-7-7-7-7-5-5-5-5-5-------|
Db|------------------10-12-7-9---9-9-9-|7-7-7-7-7-7-7-7-5-5-5-5-5-------|

FAST SECTION

SOLO chords
   hold
Eb|----------------------------------|-------------------------------|
Bb|--------------11-11--11-----------|------------------------9-9--9-|
Gb|9-9--9-9-9--9-10-10--10-12-12--12-|--------------10-10--10-8-9--9-|
Db|9-9--9-9-9--9-8--8---8--12-12--12-|7-7--7-7-7--7-10-10--10-6-6--6-|
Ab|7-7--7-7-7--7-----------10-10--10-|7-7--7-7-7--7-8--8---8---------|
Db|----------------------------------|7-7--7-7-7--7------------------|

Chorus

Eb|-----------------------------------------------|
Bb|-----------------------------------------------|
Gb|-----------------------------------------------|
Db|4--4--4--4--4--4--4--4--3--3--3--3--3--3--3--3-|
Ab|4--4--4--4--4--4--4--4--3--3--3--3--3--3--3--3-|
Db|4--4--4--4--4--4--4--4--3--3--3--3--3--3--3--3-|

Last VERSE

   PM---------------------------------------------------------------|
Eb|--------------------------------|--------------------------------|
Bb|--------------------------------|--------------------------------|
Gb|------5-4-4-4-------------------|------5-4-4-4-------------------|
Db|2-2-2-5-4-4-4-2-5-5-5-5-5-5-5-5-|2-2-2-5-4-4-4-2-5-5-8-8-5-5-8-8-|
Ab|2-2-2-3-2-2-2-2-5-5-5-5-5-5-5-5-|2-2-2-3-2-2-2-2-5-5-8-8-5-5-8-8-|
Db|2-2-2---------2-5-5-5-5-5-5-5-5-|2-2-2---------2-5-5-8-8-5-5-8-8-|

   PM---------------------|         PM-----------------------|
Eb|--------------------------------|--------------------------------|
Bb|--------------------------------|--------------------------------|
Gb|------5-4-4-4-------------------|------5-4-4-4-------------6-6-6-|
Db|2-2-2-5-4-4-4-2-5-5-5-5---5-5---|2-2-2-5-4-4-4-2-5-5-5-5-5-6-6-6-|
Ab|2-2-2-3-2-2-2-2-5-5-5-5---5-5---|2-2-2-3-2-2-2-2-5-5-5-5-5-4-4-4-|
Db|2-2-2---------2-5-5-5-5---5-5---|2-2-2---------2-5-5-5-5-5-------|

ZOMBIE CREW SECTION
                                    PM---------------------|
Eb|--------------------------------|--------------------------------|
Bb|--------------------------------|------------------------5---5---|
Gb|------6-5-------------5-4-------|------------------------4---4---|
Db|5-----6-5-----5-4-----5-4-----3-|2-2-2-2-2-2-2-2-2-2-2-2-2-2-2---|
Ab|5-----4-3-----5-4-----3-2-----3-|2-2-2-2-2-2-2-2-2-2-2-2---2-----|
Db|5-------------5-4-------------3-|2-2-2-2-2-2-2-2-2-2-2-2---2-----|

OUTRO
   PM---------------------|         PM---------------------|
Eb|--------------------------------|--------------------------------|
Bb|------------------------5---5---|------------------------5---5---|
Gb|------------------------4---4---|------------------------4---4---|
Db|2-2-2-2-2-2-2-2-2-2-2-2-2-2-2---|2-2-2-2-2-2-2-2-2-2-2-2-2-2-2---|
Ab|2-2-2-2-2-2-2-2-2-2-2-2---2-----|2-2-2-2-2-2-2-2-2-2-2-2---2-----|
Db|2-2-2-2-2-2-2-2-2-2-2-2---2-----|2-2-2-2-2-2-2-2-2-2-2-2---2-----|
Comments