Send More Paramedics - Driven To Destruction Chords & Tabs

 

Driven To Destruction Chords & Tabs

Send More Paramedics Chords & Tabs

Version: 1 Type: Tab 0 ratings
1 star 2 stars 3 stars 4 stars 5 stars
comments

Driven To Destruction Tab

   
Band:  Send More Paramedics
Album: The Hallowed And The Heathen
Song:  Driven To Destruction
http://www.sendmoreparamedics.com/

Zombiecore from Leeds, UK.

Copyright (c)  (In At The Deep End) (2004)
Version 1.0 - (04/08/05)

Transcribed By: Steve
Email:          stephen.elvidge1@ntlworld.com


.  - palm mute           /  - slide up to
\  - slide down to       ~  - vibrato
h  - hammer on           b  - Bend
p  - pull off            Suffixes for bend
t  - tap                 f  - full bend    h - half bend
ph - pinched harmonic    q  - quarter bend t - tap bend
*  - see comment         ^  - Hold bend    r release bend
x  - Stuccatto           ~  - vibrato bend
,  - slight palm mute    () - ghost note, sustained note
"  - tremolo note        <> - Trill

Tunning C# Ab Db Gb Bb Eb
 

 Intro

 Bass and Drums on own

 Main Riff

   [-PM]       [-PM]
E--------------------------|
B--------------------------|
G--------------------------|
D-7-----7------------------|
A-5-55555-6\5\3-----3-5/6--|
E---------6\5\3-33333-5/6--| Rpt 8 X


 Chorus

    h       [---PM---]
E---------------------|
B---------------------|
G---------------------|
D-5-6p5---------------|
A-------6p5-----------|
E------------0-0-0-0--| Rpt 3 X

    h   [PM]  h      
E---------------------|
B---------------------|
G---------------------|
D-5-6p5-----4-5p4-----|
A-------6p5-------5p4-|
E---------------------|

    h       [---PM---]
E---------------------|
B---------------------|
G---------------------|
D-5-6p5---------------|
A-------6p5-----------|
E------------0-0-0-0--| Rpt 3 X

    h       [---PM---] 
E---------------------|
B---------------------|
G---------------------|
D-5-6p5---------------|
A-------6p5--0--0-0-0-|
E------------0--0-0-0-|

    h       [---PM---]
E---------------------|
B---------------------|
G---------------------|
D-5-6p5---------------|
A-------6p5-----------|
E------------0-0-0-0--| Rpt 6 X

 Guitar solo 
 Backing for solo is Main Riff

  ~~~~~~~~~~~~~~~~~~~~~~~~~~~~~~~~~~~~~~~~~~~~~~~~~~~
E-----------------------------------------------------|
B-15-15-15-15--16-16-16-16--9b9b9b9b9-11b11b11b11b11--|
G-17b17b17b17b-18b18b18b18b---------------------------|
D-----------------------------------------------------|
A-----------------------------------------------------|
E-----------------------------------------------------|
[ Tab from: http://www.guitartabs.cc/tabs/s/send_more_paramedics/driven_to_destruction_tab.html ]
        h        h     h     h     h     h     h
E-------------10-13p10----10-13p10----10-13p10-------10--------|
B-10-10-13p10----------13----------13----------13-13----13p10--|
G--------------------------------------------------------------|
D--------------------------------------------------------------|
A--------------------------------------------------------------|
E--------------------------------------------------------------|
      h                       ~~~~~~~~~~~
E----------------------------11------------|
B-10-11p10----10-11-10-------14b-----------|
G----------12----------12-10---------------|
D------------------------------------------|
A------------------------------------------|
E------------------------------------------|

 Rpt Verse
 Rpt Chorus

E-------------------------------------------------------------------|
B-------------------------------------------------------------------|
G-------------------------------------------------------------------|
D-8--------------------------(8)------------------------------------|
A-6--------------------------(6)------------------------------------|
E-------------------------------------------------------------------|
                                          To Feedback
E-------------------------------------------------------------------|
B-------------------------------------------------------------------|
G-------------------------------------------------------------------|
D-------------------------------------------------------------------|
A--0-------------------------(0)------------------------------------|
E-\0-------------------------(0)------------------------------------|

 Rpt Verse

 Last time

   [-PM]       [-PM]
E----------------------------|
B----------------------------|
G----------------------------|
D-7-----7--------------------|
A-5-55555-6\5\3-----3-/5-/6--|
E---------6\5\3-33333-/5-/6--| 

               h    [PM]
E--------------------------|
B--------------------------|
G--------------------------|
D--------------------------|
A-0-0-5-6----3-5----3-3\1--|
E-0-0---6--0-3-5--0-3-3\1--| Rpt 3 X

E--------------------------|
B--------------------------|
G--------------------------|
D--------------------------|
A-0-0-5-6----3-5----3---2--|
E-0-0---6--0-3-5--0-3-0-2--|  


E---------------------------------------------|
B---------------------------------------------|
G---------------------------------------------|
D---------------------------------------------|
A-3-3-/8\7--5-6--3-2-2--3-3-/8\7--5-6--3-2-1--|
E-3-3-/8\7--5-6--3-2-2--3-3-/8\7--5-6--3-2-1--|

               h    [PM]
E--------------------------|
B--------------------------|
G--------------------------|
D-----------------------8--|
A-0-0-5-6----3-5----3---6--|
E-0-0---6--0-3-5--0-3-0----|

               h    [PM]
E--------------------------|
B--------------------------|
G--------------------------|
D--------------------------|
A-0-0-5-6----3-5----3-3\1--|
E-0-0---6--0-3-5--0-3-3\1--|

E---------------------------------------------|
B---------------------------------------------|
G---------------------------------------------|
D---------------------------------------------|
A-3-3-/8\7--5-6--3-2-2--3-3-/8\7--5-6--3-2-1--|
E-3-3-/8\7--5-6--3-2-2--3-3-/8\7--5-6--3-2-1--|



END
Comments