Send More Paramedics - Bokor Chords & Tabs

 

Bokor Chords & Tabs

Send More Paramedics Chords & Tabs

Version: 1 Type: Tab 0 ratings
1 star 2 stars 3 stars 4 stars 5 stars
comments

Bokor Tab

   
Band:  Send More Paramedics
Album: The Hallowed And The Heathen
Song:  Bokor
Copyright (c)  (In At The Deep End) (2004)
Version 1.0 - (06/10/05)

Transcribed By: Steve
Email:          stephen.elvidge1@ntlworld.com

.  - palm mute           /  - slide up to
\  - slide down to       ~  - vibrato
h  - hammer on           b  - Bend
p  - pull off            Suffixes for bend
t  - tap                 f  - full bend    h - half bend
ph - pinched harmonic    q  - quarter bend t - tap bend
*  - see comment         ^  - Hold bend    r release bend
x  - Stuccatto           ~  - vibrato bend
,  - slight palm mute    () - ghost note, sustained note
"  - tremolo note        <> - Trill

Tunning C# Ab Db Gb Bb Eb
 

 Main Riff

   [-PM] [PM]   [-PM] [-PM]  PM   h
E------------------------------------|
B------------------------------------|
G------------------------------------|
D------------------------------------|
A-3----------4p3---------------------|
E-3-33334-3334p3-33334p33334-33-4-6--| Rpt 3 X

   [-PM] [PM]   [-PM] [-PM]  PM  pick scrape
E------------------------------------|
B------------------------------------|
G------------------------------------|
D------------------------------------|
A-3----------4p3---------------\-\---|
E-3-33334-3334p3-33334p33334-33-\-\--|

 Verse


   [-PM] [PM]    [-PM] [-PM]  PM   h
E------------------------------------|
B------------------------------------|
G------------------------------------|
D------------------------------------|
A-3----------4p3---------------------|
E-3-33334-3334p3-33334p 33334-33-4-6-| Rpt 4 X

 Chorus
     ~~~~~~~~~~~~  PM    PM
E------------------------------|
B------------------------------|
G------------------------------|
D------------------------------|
A-1--222----------1----1----1--|
E-1------333-222--1-11-1-11-1--| Rpt 4 X

 Rpt Verse

 Mid 8
[ Tab from: http://www.guitartabs.cc/tabs/s/send_more_paramedics/bokor_tab.html ]
    PM   PM   PM   PM   PM   PM   [-PM-]ph~~
E-------------------------------------------|
B-------------------------------------------|
G-------------------------------------------|
D-------------------------------------------|
A-0----1----2----3----4----5----6-----5-6---|
E-0-00-1-xx-2-xx-3-xx-4-xx-5-xx-6-x-7-------|

    PM   PM   PM   PM   PM   PM  PM
E--------------------------------------------|
B--------------------------------------------|
G--------------------------------------------|
D-----------------------------------9/10-----|
A-0----1----2----3----4----5----6---7/8-9-10-|
E-0-00-1-xx-2-xx-3-xx-4-xx-5-xx-6-x-----9-10-|

 Rpt above 2 riffs

 Guitar on own

   [-PM] [PM]   [-PM]   PM   h  [-PM] [PM]   [-PM]  
E-------------------------------------------------------|
B-------------------------------------------------------|
G-------------------------------------------------------|
D-------------------------------------------------------|
A-3----------4p3--------------------------4p3-----4-----|
E-3-33334-3334p3-33334p-33-4-6-3-33334-3334p3-33334-----|

 Rpt Verse
 Rpt Chorus


E----------------------------|
B----------------------------|
G----------------------------|
D-4------------(4)-----------|
A-2------------(2)-------x\--|
E------------------------x\--|
          ~~~~~
E---------------|
B---------------|
G---------------|
D---------------|
A---------2-----|
E-1--3-p1---3---| Rpt 8 X

  [----PM----]          
E---------------|
B---------------|
G---------------|
D---------4-----|
A-1--3-p1-2-3---|
E-1--3-p1---3---| Rpt 4 X

          ~~~~~
E---------------|
B---------------|
G---------------|
D---------------|
A---------2-----|
E-1--3-p1---3---| Rpt 4 X

 Rpt Mid 8

 Last time

    PM   PM   PM   PM   PM   PM  PM
E---------------------------------------------|
B---------------------------------------------|
G---------------------------------------------|
D---------------------------------------------|
A-0----1----2----3----4----5----6---7-8-9-10--|
E-0-00-1-xx-2-xx-3-xx-4-xx-5-xx-6-x-7-8-9-10--|



END

Comments