Semisonic - Singing In My Sleep Chords & Tabs

 

Singing In My Sleep Chords & Tabs

Semisonic Chords & Tabs

Version: 1 Type: Bass Tab 0 ratings
1 star 2 stars 3 stars 4 stars 5 stars
comments

Singing In My Sleep Bass Tab

  BTAB: Singing In My Sleep
Artist: SemiSonic
 Album: Feeling Strangely Fine
Author: Rattman (jratt0@hotmail.com)

**Padrino's Bass Tab Exclusive!**

Verse/Intro:
G-------------------------------------------------------------------------
D-------------------------------------------------------------------------
A-----------------------2-2-2-2-2-2-2-2-2-4-4-4-4-4-4-4-4-0-0-0-0-0-0-0-0-
E-0-0-0-0-0-0-0-0-0-0-0---------------------------------------------------
[ Tab from: http://www.guitartabs.cc/tabs/s/semisonic/singing_in_my_sleep_btab.html ]
Pre-Chorus:
G----------------------
D----------------------
A-2-2---2-2---0-0--0-0-
E----------------------

Chorus:
G-------------------------------------------------------
D-------------------------------------------------------
A-------------2-2-2-2-2-2-2---------------0-0-0-0-0-0-0-
E-0-0-0-0-0-0---------------2-2-2-2-2-2-2---------------

Bass Solo:
G------------------------------------------------------------
D------------------------------------------------------------
A------0h2---------------0h2-4-4-4-4-4-4-4-4-0-0-0-0-0-0-0-0-
E-0~-4-----2-2-2-2-2-2-4-------------------------------------

Taken from Padrino's Bass Tab Archive: http://members.xoom.com/jszalma/

Comments