Semisonic - Dnd Chords & Tabs

 

Dnd Chords & Tabs

Semisonic Chords & Tabs

Version: 3 Type: Chords 0 ratings
1 star 2 stars 3 stars 4 stars 5 stars
comments

Dnd Chords

   
-------------------------------------------------------------------------------
			     DND - Semisonic
-------------------------------------------------------------------------------
Tabbed by: Spencer Riner
Email: zazentown@hotmail.com

this song is really easy once you learn the chords and the order and everything. 

    E     E#    D7   A   Bm   G   D

e|--0------0----0----0---2----3---2------------------------------------------|
B|--0------0----2----5---3----3---3------------------------------------------|
G|--1------2----3----6---4----0---2------------------------------------------|
D|--2------4----0----7---4----0---0------------------------------------------|
A|--2------4---------0---2----2----------------------------------------------|
E|--0-------------------------3----------------------------------------------|

 E  E#  D7  A      E  E#  D7  A
  DND,             now they'll leave us alone
  DND,             now you turn off the phone

E      E#        D7                   A             
 How like you to make the whole world disappear and
 How like you to make everything seem so clear and
 How like you to make me wanna stay forever
 Here, behind your door

[ Tab from: http://www.guitartabs.cc/tabs/s/semisonic/dnd_crd_ver_3.html ]
 E  E#  D7  A      E  E#  D7  A
 DND,               And the sign on the door
 DND,               Don't disturb us no more

 E      E#        D7                   A    
 How like you to make your love my hideaway and
 How like you to make my troubles slide away and
 How like you to make me wanna play forever
 Here, behind your door

BRIDGE:

 Bm
 Minute, I got some space and time
 G                                D     A    D    A
 I want it to get me back in the crowd
 Bm
 Minute, I got some peace You found me 
 G                              D       A
 trying to make my way to the loud
 E
 What a clown


(interlude)
E   E#  A  D7 x 4

E  E#  D7  A         E  E#  D7  A
 DND,                 Leave the hotel at noon
 DND,                 Will I see you soon

E      E#        D7                   A             
 How like you to make the whole world disappear and
 How like you to make everything seem so clear and
 How like you to make me wanna stay forever
 Here, behind your door

(Play bridge again)


E  E#  D7  A      E  E#  D7  A     E  E#  D7  A           
DND,               DND,             DND

E  E#  D7  A  

Now they'll leave us alone
===============================================================================
Comments