Semisonic - Closing Time Chords & Tabs

 

Closing Time Chords & Tabs

Semisonic Chords & Tabs

Version: 1 Type: Tab 1 rating
1 star 2 stars 3 stars 4 stars 5 stars
comments

Closing Time Tab

   
#----------------------------------PLEASE NOTE--------------------------------#
#This file is the author's own work and represents their interpretation of the#
#song. You may only use this file for private study, scholarship, or research.#
#-----------------------------------------------------------------------------#

Date: Tue, 28 Apr 1998 11:00:52 -0500
From: Isaac Smith 
Subject: s/semisonic/closing_time.tab

"Closing Time" by Semisonic from their Feeling Strangely 
Fine album.  Transcribed by Isaac Smith.

*This is a very easy song to play. 4 power chords are
used throughout the song, and the chorus uses the same
chords as the verse with a different strumming pattern.*

Intro/Verse

*Simple up-down strumming pattern*
*Chorus uses a slightly different strumming pattern*
     G5         D5        A5        C5
e|---------|---------|---------|---------|
B|---------|---------|---------|---------|
G|---------|-7-7-7-7-|---------|-5-5-5-5-|
D|-5-5-5-5-|-7-7-7-7-|-7-7-7-7-|-5-5-5-5-|
A|-5-5-5-5-|-5-5-5-5-|-7-7-7-7-|-3-3-3-3-|
E|-3-3-3-3-|---------|-5-5-5-5-|---------|
[ Tab from: http://www.guitartabs.cc/tabs/s/semisonic/closing_time_tab.html ]
Lyrics:
Closing time.  Open all the doors and let you out into
the world.  Closing time.  Turn out all of the lights on
every boy and every girl.  Closing time.  One last call
for alcohol, so finish your whiskey or beer.  Closing
time.  You don't have to go home, but you can't stay here.

Closing time.  Time for you to go out to the places you
will be from.  Closing time.  This room won't be open till
your brothers or your sisters come.  So gather up your
jackets; move it to the exits.  I hope you have found a
friend.  Closing time.  Every new beginning comes from
some other beginnings end.


Chorus:
I know who I want to take me home. (Repeated several times)

Signature Piano Fill/Outro
*Played periodically throughout the song*

e|-----------|-10--------|-----------|-----------|
B|-----------|-----------|-----------|-13--------|
G|-12-9-12-9-|----9-12-9-|-12-9-12-9-|----9-12-9-|
D|-----------|-----------|-----------|-----------|
A|-----------|-----------|-----------|-----------|
E|-----------|-----------|-----------|-----------|


Bridge:
*No lyrics*

Fill 1

e|-----------10-12-10--------------|
B|-10--10-13----------13--13-10-13-|
G|---------------------------------|
D|---------------------------------|
A|---------------------------------|
E|---------------------------------|

Fill 2-Play signature piano fill.

Fill 3-

e|---------10-|-------------|
B|------------|----------13-|
G|----9-12----|----9-12-----|
D|-12---------|-12----------|
A|------------|-------------|
E|------------|-------------|
Comments