Selena Gomez - Naturally Chords & Tabs

 

Selena Gomez Chords & Tabs

Version: 1 Type: Tab 0 ratings
1 star 2 stars 3 stars 4 stars 5 stars
comments

Naturally Tab

Tuning: Standard

Song: Naturally
Artist: Selena & The Scene
Album: Kiss & Tell (2009)

Intro:
e|-----|
B|-----|
G|--3--|
D|--3--|
A|--1--|
E|-----|

Verse:
e|--------------------------------|
B|--------------------------------|
G|--3---------------------3-------|
D|--3-(x32)-4------6------3-(x16)-|
A|--1-------4-(x8)-6-(x8)-1-------|
E|----------2------4--------------| x2

Prechorus:
e|------------------------------|
B|------------------------------|
G|----------------3------6------|
D|--4------6------3-(x8)-6-(x8)-|
A|--4-(x8)-6-(x8)-1------4------|
E|--2------4--------------------| 

e|------------------------|
B|------------------------|
G|----------------3-------|
D|--4------6------3-(x16)-|
A|--4-(x8)-6-(x8)-1-------|
E|--2------4--------------| 

Chorus:
e|------------------------------|
B|------------------------------|
G|--3-------------6-------------|
D|--3-(x8)-4------6-(x8)-6------|
A|--1------4-(x8)-4------6-(x8)-|
E|---------2-------------4------| x4

Postchorus:
e|-----|
B|-----|
G|--3--|
D|--3--|
A|--1--|
E|-----|

Verse:
e|--------------------------------|
B|--------------------------------|
G|--3---------------------3-------|
D|--3-(x32)-4------6------3-(x16)-|
A|--1-------4-(x8)-6-(x8)-1-------|
E|----------2------4--------------|
[ Tab from: http://www.guitartabs.cc/tabs/s/selena_gomez/naturally_tab.html ]
Prechorus: 
e|------------------------------|
B|------------------------------|
G|----------------3------6------|
D|--4------6------3-(x8)-6-(x8)-|
A|--4-(x8)-6-(x8)-1------4------|
E|--2------4--------------------| 

e|----------------|
B|----------------|
G|----------------|
D|--4------6------|
A|--4-(x8)-6-(x8)-|
E|--2------4------| 

Chorus:
e|------------------------------|
B|------------------------------|
G|--3-------------6-------------|
D|--3-(x8)-4------6-(x8)-6------|
A|--1------4-(x8)-4------6-(x8)-|
E|---------2-------------4------| x4


Bridge:
e|------------------------------|
B|------------------------------|
G|----------------3------6------|
D|--4------6------3-(x8)-6-(x8)-|
A|--4-(x8)-6-(x8)-1------4------|
E|--2------4--------------------| 

e|------------------------|
B|------------------------|
G|----------------3-------|
D|--4------6------3-(x16)-|
A|--4-(x8)-6-(x8)-1-------|
E|--2------4--------------| 

Chorus:
e|-----------------------------|
B|-----------------------------|
G|---------------6-------------|
D|--------4------6-(x8)-6------|
A|--------4-(x8)-4------6-(x8)-|
E|--------2-------------4------| 

e|------------------------------|
B|------------------------------|
G|--3-------------6-------------|
D|--3-(x8)-4------6-(x8)-6------|
A|--1------4-(x8)-4------6-(x8)-|
E|---------2-------------4------|  till the end - fade out
Comments