Selena - Como La Flor Chords & Tabs

 

Como La Flor Chords & Tabs

Selena Chords & Tabs

Version: 1 Type: Bass Tab 0 ratings
1 star 2 stars 3 stars 4 stars 5 stars
comments

Como La Flor Bass Tab

Selena
Dreaming of You
Como La Flor
Tabbed by Vince a.k.a. 

OK, I spent a long while figuring this out and itís not really my genre but hey I 
was so impressed with the bass line I decided to figure out how to play it. So her 
it is. Hope you enjoy!

Intro
G|--------3-------0-------0-----0----|
D|------------0-0-----0-0-----0---3/-|
A|-1--1------------------------------|
E|------1----------------------------|

G|-------3--------------5--3----3-2-0-|
D|-1---1---1-3--3-3-3-3---------------|
A|------------------------------------|
E|------------------------------------|

G|--------3----------5-3-----3------|
D|-5/1--1---1-3--3-3-------3---3----|
A|-------------------------------1--|
E|----------------------------------|

Verse1
G|-------------3-----5---------------|
D|-3-----3-1-----3-----3-------------|
A|---1-------------------------------|
E|-----------------------------------|

Chorus1
G|---------------------------------------|
D|-5/1------1-------3------3-------------|
A|------1-1-----3-3----3-3------3-3/10/3-|
E|---------------------------------------|

G|-------3-2-0---0-0---0--------------------5---|
D|-----3-------------0----3--1-----1--2--3----3-|
A|-1---------------------------1-1--------------|
E|----------------------------------------------|

G|----------------------------------5-3--------|
D|------------------5---3-1-2-3-3-3--------3---|
A|------------3------------------------------1-|
E|-10/0--1--1---6-5----------------------------|

Intro2
G|--------------3-------0-------0-----0----|
D|-----3------------0-0-----0-0-----0---3/-|
A|-1-1---1---------------------------------|
E|----------1-1----------------------------|

G|-------3--------------5--3----3-2-0-|
D|-1---1---1-3--3-3-3-3---------------|
A|------------------------------------|
E|------------------------------------|
[ Tab from: http://www.guitartabs.cc/tabs/s/selena/como_la_flor_btab.html ]
G|---------------------------|
D|-1--2--3------3-3-----3----|
A|------------------1-----1--|
E|---------------------------|
Verse

Chorus2
G|---------------------------------------|
D|-5/1------1-------3------3-------------|
A|------1-1-----3-3----3-3------3-3/10/3-|
E|---------------------------------------|

G|-------3-2-0---0-0---0-----------------------5-5---|
D|-----3-------------0----3--1-----1--2--3---3-----3-|
A|-1---------------------------1-1-------------------|
E|---------------------------------------------------|

G|------------------------------3---------5-3-|
D|------------------5---3-1---1---1-3-3-3-----|
A|------------3-------------------------------|
E|-10/0--1--1---6-5---------------------------|

Intro
G|----3-------3--------0-------0-----0----|
D|-3-3----3-3-----0-0-----0-0-----0----3/-|
A|----------------------------------------|
E|----------------------------------------|

G|-------------------------------3-----|
D|-1--2--3---3-3-------3-----3-3-------|
A|---------------3-1-----1-------------|
E|-------------------------------------|

Chorus2
G|---------------------------------------|
D|-5/1------1-------3------3-------------|
A|------1-1-----3-3----3-3------3-3/10/3-|
E|---------------------------------------|

G|-------3-2-0---0-0---0-----------------------5-5---|
D|-----3-------------0----3--1-----1--2--3---3-----3-|
A|-1---------------------------1-1-------------------|
E|---------------------------------------------------|

G|------------------------------3---------5-3---3-2-0-|
D|------------------5---3-1---1---1-3-3-3-------------|
A|------------3---------------------------------------|
E|-10/0--1--1---6-5-----------------------------------|

G|------------3-----3-2-0-----0-----------3---|
D|-5/1-2-3----------------------1---3---3---1-|
A|--------------------------------------------|
E|--------------------------------------------|
Comments