Selecter - The Selecter Chords & Tabs

 

The Selecter Chords & Tabs

Selecter Chords & Tabs

Version: 2 Type: Bass Tab 0 ratings
1 star 2 stars 3 stars 4 stars 5 stars
comments

The Selecter Bass Tab

Song: The Selecter
Artist: The Selecter
Tabbed by: Iisaw Kookostawis (joannie@sprocket.viathe.net)


listen to the recording to get exact timing. See below for order they are 
played in. 


riff 1

G:-----------------------------------------------------
D:-----7-----------------------------------------------
A:-----------------------------------------------------
E:--5-----5--3-3-3-3-0--3------------------------------

[ Tab from: http://www.guitartabs.cc/tabs/s/selecter/the_selecter_btab_ver_2.html ]
riff 2
                                   
G:----------------------------------------------------
D:-----7-----9-----10-----11----12-/-(5)--------------
A:----------------------------------------------------
E:--5-----7-----8------9------------------------------


riff 3

G:----------------------------------------------------
D:---------------------------------------------------
A:----------------------3-----------------------------
E:---5----3----2--1---1---1-1-1--1--2--3--------------

Here is the order riffs are played in:
riff 1 (x2)     
riff 2 
riff 1 (x6)
riff 3 
riff 1 (x4)
riff 2
riff 1 (x6)
riff 3
riff 1 (x6)
riff 2
riff 1 (x2)
riff 2
riff 1 (x2)
riff 3
riff 1 (x6)
riff 2
riff 1 (x2)
riff 2
riff 1 (x2)
riff 3
riff 1 ....until music fades out
Comments