Sega Rally Championship Game Cd - Track #9 Chords & Tabs

 

Track #9 Chords & Tabs

Sega Rally Championship Game Cd Chords & Tabs

Version: 1 Type: Tab 0 ratings
1 star 2 stars 3 stars 4 stars 5 stars
comments

Track #9 Tab

Track # 9 - Sega Rally Championship Game CD (Tabbed by Atticus)
-------------------------------------------

Key:

9 \[x]  - slide to nowhere
[x]/10  - slide from nowhere
(	- Start of run	
)	- End of run

Main Chorus Riff:

E|----------------------------------------------------------------------|
B|----------------------14-13-12---10--9-10-(12p10-9--------------------|
G|-13---11--10-11-13-------------------------------11p9-----------------|
D|-------------------11--------------------------------13-11-9----------|
A|------------------------------------------------------------12p11-10)-|
E|----------------------------------------------------------------------|

E|------------------------------------------------------------------|
B|----------------------------10-----------8--------------6-7-8-9)--|
G|--------------------------------------------------5-6-8-----------|
D|---------12/14-12--12-11-10---10--10-9-8--8--(6-8-----------------|
A|-10-9-10----------------------------------------------------------|
E|------------------------------------------------------------------|


2nd Time Guitar Solo:
[ Tab from: http://www.guitartabs.cc/tabs/s/sega_rally_championship_game_cd/track_9_tab.html ]
E|-----14-16/18--16p14h16--h17p16------------------------------------------------|
B|---16---------------------------h16p14-(14-------------------------------------|
G|-13---------------------------------------16-14-16-14-13-14-13-----------------|
D|--------------------------------------------------------------16-14)-14h16p14--|
A|-------------------------------------------------------------------------------|
E|-------------------------------------------------------------------------------|

E|-----------------------------------------10--------------------|
B|---12--14--14b(16)b14-12h14-12--12-11-10----10-10--------------|
G|--------------------------------------------------13-12\[x]----|
D|-12--12--12----------------------------------------------------|
A|---------------------------------------------------------------|
E|---------------------------------------------------------------|

E|--------18-29-21-19-18-19-18----------------------------------21------------------|
B|-[x]/16---------------------19--17-19-21-19--21b(22)b21-21-19----21b(22)21-19-19--|
G|------------------------------18--------------------------------------------------|
D|----------------------------------------------------------------------------------|
A|----------------------------------------------------------------------------------|
E|----------------------------------------------------------------------------------|

E|------19-20-19---------------------------------------------10--10-9--------|
B|---(20--------20----------------------------------------------------13-11--|
G|-19-------------19-17-16-17-16---------------------------11----------------|
D|------------------------------17----17/19-17-19--19\[x]--------------------|
A|--------------------------------17)----------------------------------------|
E|---------------------------------------------------------------------------|

Comments