Seether - Your Bore Chords & Tabs

 

Your Bore Chords & Tabs

Seether Chords & Tabs

Version: 4 Type: Tab 0 ratings
1 star 2 stars 3 stars 4 stars 5 stars
comments

Your Bore Tab

   
Tabbed by:chad murphy
Email:metalman35666@yahoo.com
Band:seether
CD:Disclaimer
Drop d 
I have seen these guys live twice and they kick ass!
but a lot of people have this song tabed wrong. this 100% correct!

Intro/verse:
E----------------------------------------------------------
B----------------------------------------------------------
G----------------------------------------------------------
D------14-----14---14-----12----12--12-----5---5---5--5--3-
A----12-----12----------10----10----------3---3---3--3-----
D--12-----12----12----10----10----10-----3---3---3--3---3--
[ Tab from: http://www.guitartabs.cc/tabs/s/seether/your_bore_tab_ver_4.html ]
Chorus:
E-------------------
B-------------------
G------5------------
D--0---3---3---5---7
A--0---3---3---5---7
D--0-------3---5---7
Listen to the song to get the rhythm

Interlude:
E-------------------------------------------------------------
B-------------------------------------------------------------
G-------------------------------------------------------------
D--0-2-3-0-2-3-0-2-3-0-2-3-0-2/6--0-2-3-0-2-3-0-2-3-0-2-3-6--6
A--0-2-3-0-2-3-0-2-3-0-2-3-0-3/6--0-2-3-0-2-3-0-2-3-0-2-3-6--6
D--0-2-3-0-2-3-0-2-3-0-2-3-0-3/6--0-2-3-0-2-3-0-2-3-0-2-3-6--6

That all! enjoy this tab its a great song! please rate this!
Comments