Seether - Your Bore Chords & Tabs

 

Your Bore Chords & Tabs

Seether Chords & Tabs

Version: 3 Type: Tab 0 ratings
1 star 2 stars 3 stars 4 stars 5 stars
comments

Your Bore Tab

   
-----------------------------------------------------------------------
			     Your Bore - Seether
-----------------------------------------------------------------------

Tabbed by: Matt Culpepper
Email: Stratomatter87@mchsi.com
Tuning: Dropped D (D,A,D,G,B,e)

This is my 2nd tab. Driven under was messed up. To use it just move all the
notes in the intro up a string. Anywho, this IS right.

Intro/Verse
e|---------------------------------------------------------------------
B|---------------------------------------------------------------------
G|----8---8---6------6---6---4-----------------------------------------
D|---6-6------------4-4-----------4---4--4---4---4-2-------------------
A|--4---4---4------2---2---2-----2-2--------2-2------------------------
D|------------------------------2---2--2---2---2-----------------------
[ Tab from: http://www.guitartabs.cc/tabs/s/seether/your_bore_tab_ver_3.html ]
Chorus
e|---------------------------------------------------------------------
B|---------------------------------------------------------------------
G|--6--4---------------------------------------------------------------
D|--6--4--2--4--6------------------------------------------------------
A|--4--2--2--4--6------------------------------------------------------
D|--------2--4--6------------------------------------------------------

Bridge (palm mute)
e|---------------------------------------------------------------------
B|---------------------------------------------------------------------
G|---------------------------------------------------------------------
D|--0-0-2-3--0-0-2-3--0-0-2-0----6-6-----------------------------------
A|--0-0-2-3--0-0-2-3--0-0-2-0----6-6óslide down------------------------
D|--0-0-2-3--0-0-2-3--0-0-2-0----6-6-----------------------------------

Well thatís it... this one should be better but no guarantees... good luck with
it... if you have questions or whatever, email me...see ya... 


| /  slide up
| \  slide down
| h  hammer-on
| p  pull-off
| ~  vibrato
| +  harmonic
| x  Mute note

=======================================================================
Comments