Seether - Your Bore Chords & Tabs

 

Your Bore Chords & Tabs

Seether Chords & Tabs

Version: 2 Type: Tab 0 ratings
1 star 2 stars 3 stars 4 stars 5 stars
comments

Your Bore Tab

   
-------------------------------------------------------------------------------
			     Seether- Your Bore
-------------------------------------------------------------------------------
Tabbed by:Jeremy Kowalczyk
Email:RudeAwakening111@aol.com
You can figure out the rythem of the song
Tuning:DADGBE
Intro/verse
e|---------------------------------------------------------------------------|
B|---------------------------------------------------------------------------|
G|-------8-------6-----------------------------------------------------------|
D|-----6-------4---------4---------------------------------------------------|
A|---4-------2----------2----------------------------------------------------|
D|---------------------2-----------------------------------------------------|
Chorus 
e|---------------------------------------------------------------------------|
B|---------------------------------------------------------------------------|
G|---------------------------------------------------------------------------|
D|---------2222h444----------------------------------------------------------|
A|--6--4---2222h444----------------------------------------------------------|
D|--4--2---2222h444----------------------------------------------------------|
Verse
Chorus

| /  slide up
| \  slide down
| h  hammer-on
| p  pull-off
| ~  vibrato
| +  harmonic
| x  Mute note
===============================================================================
[ Tab from: http://www.guitartabs.cc/tabs/s/seether/your_bore_tab_ver_2.html ]
Comments