Seether - Your Bore Chords & Tabs

 

Your Bore Chords & Tabs

Seether Chords & Tabs

Version: 1 Type: Tab 0 ratings
1 star 2 stars 3 stars 4 stars 5 stars
comments

Your Bore Tab

   
 Song Title :    Your bore
 Artist:         Seether
 Album :         Disclaimer
 Tabbed by :     Verguelis Andrew /andver/  (andver@aport2000.ru)

 Tuning :        E A D G B E

 

 Intro and Verse : 
 
         E   |------------------------------------------------------------------------------------------|
         B   |------------------------------------------------------------------------------------------|
         G   |-------8--------8--6--------6--------6----------------------------------------------------|
         D   |----6-----6--------------4-----4-----------------4--------4--------4--------4--------2----|
         A   |-4-----------4--------2-----------2-----------2-----2--------2--------2--------2----------|
         E   |----------------------------------------4--0-----------0--------0--------0--------0-------|

 
 Chorus :
 0.36

         E   |-4--4--4--------------------------------------------------------------| 
         B   |-4--4--4--------------------------------------------------------------|   Repeat it 
         G   |-6--6--6--------------------------------------------------------------|   
         D   |-6--6--6---4--4--4--4--0--2-2-2-2-2-2-2-2-----------------------------|     twice
         A   |-4--4--4---2--2--2--2--0--2-2-2-2-2-2-2-2--4-4-4/6-6-6----------------|
         E   |-4--4--4---------------0--0-0-0-0-0-0-0-0--2-2-2/4-4-4----------------|
 0.50
[ Tab from: http://www.guitartabs.cc/tabs/s/seether/your_bore_tab.html ]
         E   |-4-4-4-4-4-4-4-4-4/6-6-6-6-6-6-6-6/7-7-7-7-7-7-7-7/9--9--9--9-/11-11-11-------------------|
         B   |-4-4-4-4-4-4-4-4-4/6-6-6-6-6-6-6-6/7-7-7-7-7-7-7-7/9--9--9--9-/11-11-11-------------------|  Repeat it 
         G   |-6-6-6-6-6-6-6-6-6/8-8-8-8-8-8-8-8/9-9-9-9-9-9-9-9/11-11-11-11/13-13-13-------------------|
         D   |-6-6-6-6-6-6-6-6-6/8-8-8-8-8-8-8-8/9-9-9-9-9-9-9-9/11-11-11-11/13-13-13-------------------|    twice
         A   |-4-4-4-4-4-4-4-4-4/6-6-6-6-6-6-6-6/7-7-7-7-7-7-7-7/9--9--9--9-/11-11-11-------------------|
         E   |-4-4-4-4-4-4-4-4-4/6-6-6-6-6-6-6-6/7-7-7-7-7-7-7-7/9--9--9--9-/11-11-11-------------------|

 Interlude 
 2.04
 
         E   |------------------------------------------------------------------------------------------|
         B   |------------------------------------------------------------------------------------------|
         G   |------------------------------------------------------------------------------------------|
         D   |------------------------------------------------------------------------------------------|
         A   |-4-6-7--4-6-7--4-6-7--4-6-7--4-4-10-------4-6-7--4-6-7--4-6-7--4-6-7--10-10---------------|
         E   |-4-6-7--4-6-7--4-6-7--4-6-7--4-4-10-------4-6-7--4-6-7--4-6-7--4-6-7--10-10---------------|


         E   |------------------------------------------------------------------------------------------|
         B   |------------------------------------------------------------------------------------------|
         G   |------------------------------------------------------------------------------------------|
         D   |-6-8-9--6-8-9--6-8-9--6-8-9--6-6-12-------6-8-9--6-8-9--6-8-9--6-8-9--12-12---------------|
         A   |-4-6-7--4-6-7--4-6-7--4-6-7--4-4-10-------4-6-7--4-6-7--4-6-7--4-6-7--10-10---------------|
         E   |-4-6-7--4-6-7--4-6-7--4-6-7--4-4-10-------4-6-7--4-6-7--4-6-7--4-6-7--10-10---------------|



 Last one play like this
 2.32
         E   |------------------------------------------------------------------------------------------|
         B   |------------------------------------------------------------------------------------------|
         G   |--------------------------------------6---------------------------------------------------|
         D   |-6-8-9--6-8-9--6-8-9--6-8-9--6-6-12-------6-8-9--6-8-9--6-8-9--6-13-11-16-13--------------|
         A   |-4-6-7--4-6-7--4-6-7--4-6-7--4-4-10-------4-6-7--4-6-7--4-6-7--4-11-9--14-11--------------|
         E   |-4-6-7--4-6-7--4-6-7--4-6-7--4-4-10-------4-6-7--4-6-7--4-6-7-----------------------------|


 Repeat chorus : 


 For lyrics, go to   http://www.seether.com   ,  enjoy !!!
Comments