Seether - Your Bore Chords & Tabs

 

Your Bore Chords & Tabs

Seether Chords & Tabs

Version: 1 Type: Bass Tab 0 ratings
1 star 2 stars 3 stars 4 stars 5 stars
comments

Your Bore Bass Tab

Band- Seether
Song- Your Bore

Intro/Verse1
|--------------------------------------------------------------------|
|--------------------------------------------------------------------|
|--------------22222222222222----------------------------------------|x5
|00000000000000--------------222222222222222222222-------------------|



Chorus(0:37)
|---------------------------------------------|
|---------------------------------------------|
|-----22-2-2----------------------------------|x4
|0-0-0------2-2-2/444/66----------------------|



verse2(1:06)
|--------------------------------------------------------------------|
|--------------------------------------------------------------------|
|--------------22222222222222----------------------------------------|x4
|00000000000000--------------222222222222222222222-------------------|


[ Tab from: http://www.guitartabs.cc/tabs/s/seether/your_bore_btab.html ]
Chorus(1:35)
|---------------------------------------------|
|---------------------------------------------|
|-----22-2-2----------------------------------|x4
|0-0-0------2-2-2/444/66----------------------|



bridge(2:07)
|---------------------------------------------|
|---------------------------------------------|
|---------------------------------------------|x1
|023023023023-55------------------------------|



"I hate what you are....."(2:11)
|---------------------------------------------|
|---------------------------------------------|
|---------------------------------------------|x3
|023023023023-00-5----023023023023-55---------|



(2:33)
|---------------------------------------------|
|---------------------------------------------|
|---------------------------------------------|x1
|023023023023-00-5----023023023023--54240-----|




Chorus(2:41)
|---------------------------------------------|
|---------------------------------------------|
|-----22-2-2----------------------------------|x8
|0-0-0------2-2-2/444/66----------------------|



outro
|----|
|----|
|----|
|-0--|
Comments