Seether - World Falls Away Chords & Tabs

 

World Falls Away Chords & Tabs

Seether Chords & Tabs

Version: 2 Type: Tab 0 ratings
1 star 2 stars 3 stars 4 stars 5 stars
comments

World Falls Away Tab

SEETHER
WORLD FALLS AWAY
KARMA AND EFFECT
2005

Tuning: Drop D Tuned Down 1/2 Step (Db)

INTRO/PRE CHORUS

eb------------------------------------------------------|
Bb------------------------------------------------------|
Gb------------------------------------------------------|
Db--8-8-8-8--8^8--8-8-8-8--8^8--8-8-8-8--8^8--8-8-8-8---|
Ab--8-8-8-8-------8-8-8-8-------8-8-8-8-------8-8-8-8---|
Db--8-8-8-8-------8-8-8-8-------8-8-8-8-------8-8-8-8---|

CHORUS

Guitar 1

eb-------------------------------------------|
Bb-------------------------------------------|
Gb-------------------------------------------|
Db--2--2--x-x-2--2--x-x-5--5-x-x-5/7-7-7-7-7-|
Ab--2--2--x-x-2--2--x-x-5--5-x-x-5/7-7-7-7-7-|
Db--2--2--x-x-2--2--x-x-5--5-x-x-5/7-7-7-7-7-|

Guitar 2

eb----------------17-------------------19-20----------------17-------------------20/19-----|
Bb-------------16----16-------------19-------------------16----16-------------19-------19--|
Gb--14--14--14-----------17--17--17-----------14--14--14-----------17--17--17--------------|
Db-----------------------------------------------------------------------------------------|
Ab-----------------------------------------------------------------------------------------|
Db-----------------------------------------------------------------------------------------|

VERSE

Guitar 1 only at beginning; both 1 and 2 at "It's hurting again..."

Guitar 1

eb---------------------------------------------------|
Bb---------------------------------------------------|
Gb---------------------------------------------------|
Db-------9--10-9h10p9---9--------9--10-9h10p9----12--|
Ab--7--7--------------7---10--10--------------10-----|
Db---------------------------------------------------|

Guitar 2
[ Tab from: http://www.guitartabs.cc/tabs/s/seether/world_falls_away_tab_ver_2.html ]
eb----------------------------------------------------------|
Bb----------------------------------------------------------|
Gb----------------------------------------------------------|
Db----------------------------------------------------------|
Ab--5-5-5/7--7--7-7---5---2---5---5/7--7--7-7---5---2---5---|
Db----------------------------------------------------------|

PRE CHORUS

CHORUS (Guitar 2 enters after Shaun finishes singing)

VERSE

PRE CHORUS

CHORUS

BRIDGE

Guitar 1

eb--------------------------------------|
Bb--------------------------------------|
Gb--------------------------------------|
Db--8--8--8-8/7-7-7--7-0--0--0-2--0--2--|
Ab--8--8--8-8/7-7-7--7-0--0--0-2--0--2--|
Db--8--8--8-8/7-7-7--7-0--0--0-2--0--2--|

Guitar 2

eb--------------------------------------|
Bb--------------------------------------|
Gb-----------------------------14-14/---|
Db--------------------------------------|
Ab--------------------------------------|
Db--------------------------------------|

INTERLUDE

Guitar 1

eb--------------------|
Bb--------------------|
Gb--9---9---12---14---|
Db--------------------|
Ab--7---7---10---12---|
Db--------------------|

eb---------------------------------------------------12--|
Bb--12--12--12-12h13p12-12----12--12--12-12h13p12-12-----|
Gb-------------------------12----------------------------|
Db-------------------------------------------------------|
Ab-------------------------------------------------------|
Db-------------------------------------------------------|

SOLO (If I cared enough I would tab it out, but I don't)

CHORUS

OUTRO

eb------------------------------------------|
Bb------------------------------------------|
Gb------------------------------------------|
Db--2-2-2-2---1-1-1-1---2-2-2-2---5-5-5-5---|
Ab--2-2-2-2---1-1-1-1---2-2-2-2---5-5-5-5---|
Db--2-2-2-2---1-1-1-1---2-2-2-2---5-5-5-5---|

END
Comments