Seether - World Falls Away Chords & Tabs

 

World Falls Away Chords & Tabs

Seether Chords & Tabs

Version: 1 Type: Tab 0 ratings
1 star 2 stars 3 stars 4 stars 5 stars
comments

World Falls Away Tab

   
Down half step and drop D (Db Ab Db Gb Bb Eb)

Guitar 1 and 2 (4x on 4th just do power chord)

|----------|
|----------|
|----------|
|-8888-8p8-|
|-8888-----|
|-8888-----|

Guitar 1
|------------------------|
|------------------------|
|------------------------|
|-2-x-x-2-222s5555s777---|
|-2-x-x-2-222s5555s777---|
|-2-x-x-2-222s5555s777---|

Guitar 2

|-----7--7-5-10p9-5---|
|-55-5--5-------------|
|---------------------|
|---------------------|
|---------------------|
|---------------------|

|-----7--7-5-5b-----|
|-55-5--5-----------|
|-------------------|
|-------------------|
|-------------------|
|-------------------|

Verse

|---------------------------------------|
|---------------------------------------|
|---------------------------------------|
|------9-10-9--------9-10--9h10h9---12--|
|-9-10----------9-10----------------9---|
|---------------------------------------|

Pre Chorus

|----------|
|----------|
|----------|
|-8888-8p8-|
|-8888-----|
|-8888-----|

Chorus

Guitar 1
|------------------------|
|------------------------|
|------------------------|
|-2-x-x-2-222s5555s777---|
|-2-x-x-2-222s5555s777---|
|-2-x-x-2-222s5555s777---|

Verse
[ Tab from: http://www.guitartabs.cc/tabs/s/seether/world_falls_away_tab.html ]
|---------------------------------------|
|---------------------------------------|
|---------------------------------------|
|------9-10-9--------9-10--9h10h9---12--|
|-9-10----------9-10----------------9---|
|---------------------------------------|

Pre Chorus

|----------|
|----------|
|----------|
|-8888-8p8-|
|-8888-----|
|-8888-----|

Chorus

Guitar 1
|------------------------|
|------------------------|
|------------------------|
|-2-x-x-2-222s5555s777---|
|-2-x-x-2-222s5555s777---|
|-2-x-x-2-222s5555s777---|

Bridge

|------------------------------------|
|------------------------------------|
|------------------------------------|
|-8-8-8-8-7-7-7--0-0-0-1-0-1-1-------|
|-8-8-8-8-7-7-7--0-0-0-1-0-1-1-------|
|-8-8-8-8-7-7-7--0-0-0-1-0-1-1-------|

Interlude Guitar 1

|----------------------------------------------------------12-|
|-12--12-12-12h14h12-----12--12-12-12-12h14h12----------------|
|-------------------------12---------------------------12-----|
|-------------------------------------------------------------|
|-------------------------------------------------------------|
|-------------------------------------------------------------|

Interlude Guitar 2

|-------------------|
|-------------------|
|-9---11---12---14--|
|-------------------|
|-7----9---10---12--|
|-------------------|

Don't know the solo...
Comments