Seether - Truth Chords & Tabs

 

Truth Chords & Tabs

Seether Chords & Tabs

Version: 3 Type: Tab 0 ratings
1 star 2 stars 3 stars 4 stars 5 stars
comments

Truth Tab

   
Artist: Seether
Song: Truth
Album: Karma and Effect 
Tabbed by: Philip Gosche (gosche15@yahoo.com)

Notation:
  h - hammer on 
  p - pull off 
  b - bend string up
  r - release bend
  / - slide up
  \ - slide down
 pm - palm muting
  * - natural harmonic

Tuning (low to high):  Db, Ab, Db, Gb, Bb, Eb

Intro
Eb|-----------------------------------|
Bb|-----------------------------------|
Gb|-----4---------4-------------------|  4x
Db|---4---4-----4---4--------4--------|
Ab|-2----------------------0----------|
Db|-----------2----------0------------|

Eb|-----------------------------------|
Bb|-----------------------------------|
Gb|-----------------------------------|  2x
Db|-10-9-x-x-9-7-x-x-7-5-x-x-2-x-x-5--|
Ab|-10-9-x-x-9-7-x-x-7-5-x-x-2-x-x-5--|
Db|-10-9-x-x-9-7-x-x-7-5-x-x-2-x-x-5--|

Verse(guitar 1) not 100% sure on this part but its close
Eb|-----------------------------------|
Bb|-----------------------------------|
Gb|-----4---------4-------------------|  4x
Db|---4---4-----4---4--------4--------|
Ab|-2----------------------0----------|
Db|-----------2----------0------------|
(guitar 2)
Eb|-----------------------------------|
Bb|-----------------------------------|
Gb|-4--4--2--2------------------------|  4x
Db|-4--2--0--2------------------------|
Ab|-2--2--0--0------------------------|
Db|----2--0---------------------------|

Prechorus
Eb|-----------------------------------|
Bb|-----------------------------------|
Gb|-----------------------------------|  2x
Db|-10-9-x-x-9-7-x-x-7-5-x-x-2-x-x-5--|
Ab|-10-9-x-x-9-7-x-x-7-5-x-x-2-x-x-5--|
Db|-10-9-x-x-9-7-x-x-7-5-x-x-2-x-x-5--|

Chorus
Eb|---------------------|
Bb|---------------------|
Gb|--4------------------|  4x
Db|--2--2--5--7---------|
Ab|--2--2--5--7---------|
Db|-----2--5--7---------|
[ Tab from: http://www.guitartabs.cc/tabs/s/seether/truth_tab_ver_3.html ]
Solo(guitar1)
Eb|---------------------|
Bb|---------------------|
Gb|---------------------|  4x
Db|----2----5-----------|
Ab|----2----5-----------|
Db|----2----5-----------|

(guitar 2)
Eb|---------------------------------------------|
Bb|-12-10---------------------------8-10--12-10-|
Gb|-------12-11-12-11-11-12-7-9-7-9-------------|
Db|---------------------------------------------|
Ab|---------------------------------------------|
Db|---------------------------------------------|

Eb|----------------14-15-14-15------------------|
Bb|--------------------------------8-10--12-10--|
Gb|-12-11-12-11----------------7-9--------------|
Db|---------------------------------------------|
Ab|---------------------------------------------|
Db|---------------------------------------------|

Eb|---------------------------------------------|
Bb|---------------------------8-10--12-10-------|
Gb|-12-11-12-11-11-12-7-9-7-9-------------12-11-|
Db|---------------------------------------------|
Ab|---------------------------------------------|
Db|---------------------------------------------|

Eb|---------14-15-14~-----|
Bb|-----------------------|
Gb|-12-11-----------------|
Db|-----------------------|
Ab|-----------------------|
Db|-----------------------|

Outro (this is played during the last 4x of the ending chorus)
Eb|---------------------------------------------|
Bb|-12-12-11-12-12-11-12-12-11-12-12-12-12-11---|
Gb|---------------------------------------------| 4x
Db|---------------------------------------------|
Ab|---------------------------------------------|
Db|---------------------------------------------|

Song Order:

Intro 4X
Pre-Chorus 2X
Verse 4X
Pre-Chorus 2X
Chorus 4X
Intro 1X
Verse 4X
Pre-Chorus 2X
Chorus 4X
Solo
Intro 2X
Chorus 8X
Pre-Chorus 4X

End on this..

Eb|----------------------------------|
Bb|----------------------------------|
Gb|----------------------------------|
Db|-10-9-x-x-9-7-x-x-7-5-x-x-x-x-2---|
Ab|-10-9-x-x-9-7-x-x-7-5-x-x-x-x-2---|
Db|-10-9-x-x-9-7-x-x-7-5-x-x-x-x-2---|
Comments