Seether - Truth Chords & Tabs

 

Truth Chords & Tabs

Seether Chords & Tabs

Version: 2 Type: Tab 0 ratings
1 star 2 stars 3 stars 4 stars 5 stars
comments

Truth Tab

SEETHER
TRUTH
KARMA AND EFFECT
2005

Tuning: Drop D Tuned Down 1/2 Step (Db)

VERSE

"If I gave you the truth..."
eb-------------------------|
Bb-------------------------|
Gb------4-------4----------|
Db----4---4-------4-----4~-|
Ab--2---------2-------0----|
Db----------2-------0------|

RIFF 1
"You're so much more than me..."
\--------------------------------------------------|
\--------------------------------------------------|
\-----------------------------------------------7--|
\--10-9--0-0---0-9-7--0-0---0-7-5--0-0---2--0-0-7--|
\--10-9--0-0---0-9-7--0-0---0-7-5--0-0---2--0-0-5--|
\--10-9--0-0---0-9-7--0-0---0-7-5--0-0---2--0-0----|


"No there's nothing you say..."

Guitar 1
eb-------------------------|
Bb-------------------------|
Gb------4-------4----------|
Db----4---4-------4-----4~-|
Ab--2---------2-------0----|
Db----------2-------0------|

Guitar 2
\--------------|
\--------------|
\--4-----------|
\--4--2--5--0--|
\--2--2--5--0--|
\-----2--5--0--|

RIFF 1

CHORUS

"I'm beaten down again..."
\-----------------------------------|
\-----------------------------------|
\--4-4-4-4--------------------------|
\--4-4-4-4-2-2-2-2-5-5-5-5-0-0-2-0--|
\--2-2-2-2-2-2-2-2-5-5-5-5-0-0-2-0--|
\----------2-2-2-2-5-5-5-5-0-0-2-0--|
[ Tab from: http://www.guitartabs.cc/tabs/s/seether/truth_tab_ver_2.html ]
VERSE
RIFF 1
CHORUS

BRIDGE

Guitar 1
\------------------|
\------------------|
\------------------|
\--2-2-2-2-5-5-5-5-|
\--2-2-2-2-5-5-5-5-|
\--2-2-2-2-5-5-5-5-|

Guitar 2
\-------------------------------------------------------------14--15-14-14--|
\--10^10-----------------------------------10-10^10-------------------------|
\--------12-11--12-11-11--12----9---9-9-12----------12-11--12---------------|
\----------------------------12---------------------------------------------|
\---------------------------------------------------------------------------|
\---------------------------------------------------------------------------|

Verse riff once

CHORUS

ENDING

"I'm beaten down!"

Guitar 1
\-----------------------------------|
\-----------------------------------|
\--4-4-4-4--------------------------|
\--4-4-4-4-2-2-2-2-5-5-5-5-0-0-2-0--|
\--2-2-2-2-2-2-2-2-5-5-5-5-0-0-2-0--|
\----------2-2-2-2-5-5-5-5-0-0-2-0--|

Guitar 2
\--------------------------------------10-------|
\--12---12-10-12---12-10-12---12-10-12----12-10-|
\-----------------------------------------------|
\-----------------------------------------------|
\-----------------------------------------------|
\-----------------------------------------------|

RIFF 1


THE END
Comments