Seether - Truth Chords & Tabs

 

Truth Chords & Tabs

Seether Chords & Tabs

Version: 1 Type: Tab 1 rating
1 star 2 stars 3 stars 4 stars 5 stars
comments

Truth Tab

   
Seether
Truth
Karma And Effect
2005

Tuning: Drop D Tuned Down 1/2 Step (Db)

X=Open Palm Mute
h=Hammer
v=Vibrato

Verse 1-x4 played clean

Eb|------------------------|
Bb|------------------------|
Gb|-----4-------4----------|
Db|---4---4-------4-----4~-|
Ab|-2---------2-------0----|
Db|---------2-------0------|

Riff 1-x2, played with distortion
			                                      second time
|------------------------------------------------------------|------|
|------------------------------------------------------------|------|
|------------------------------------------------------7-x-x-|------|
|-x-x-x-10-9--x-x---x-9-7--x-x---x-7-5--x-x---x-2--x-x-7-x-x-|-5-x-x|
|-x-x-x-10-9--x-x---x-9-7--x-x---x-7-5--x-x---x-2--x-x-5-x-x-|-5-x-x|
|-x-x-x-10-9--x-x---x-9-7--x-x---x-7-5--x-x---x-2--x-x---x-x-|-5-x-x|
 



Verse 2-x4 played clean	         On fourth time into Riff 1…
Eb|------------------------------------|------------|
Bb|------------------------------------|------------|
Gb|------4-------4---------2-------2---|------------|
Db|----4---4-------4-----0—--0---0---0-|-x-x--x-x-x-|
Ab|--2---------2---------------0-------|-x-x--x-x-x-|
Db|----------2-------0-----------------|-x-x--x-x-x-|
				     
Riff 1
[ Tab from: http://www.guitartabs.cc/tabs/s/seether/truth_tab.html ]
Chorus- x4, played w/ distortion
|-------------------------------|
|-------------------------------|
|-4-4---------------------------|
|-4-4--2-2-2-2-5-5---5-0-0-2-0--|
|-2-2--2-2-2-2-5-5---5-0-0-2-0--|
|------2-2-2-2-5-5---5-0-0-2-0--|
   
Verse 1–x1
Verse 2
Riff 1
Chorus


Solo-  h=hammer, v=vibrato
|-------------------------------------------------------------14--15-14-15--|
|--10^10-----------------------------------10-10^10-------------------------|
|--------12-11--12-11-11h12----9---9h12-------------12-11--12---------------|
|----------------------------12---------------------------------------------|
|---------------------------------------------------------------------------|
|---------------------------------------------------------------------------|
Second time…
|-------------------------------------------------------------14--15-14-14v-|
|--10^10-----------------------------------10-10^10-------------------------|
|--------12-11--12-11-11h12----9---9h12-------------12-11--12---------------|
|----------------------------12---------------------------------------------|
|---------------------------------------------------------------------------|
|---------------------------------------------------------------------------|

Verse1-  x2
Chorus-  x6
Riff 1-  x3

On third time…
|------------------------------------------------|
|------------------------------------------------|
|------------------------------------------------|
|-x-x-x-10-9--x-x---x-9-7--x-x---x-7-5--x-x-x—-2-|
|-x-x-x-10-9--x-x---x-9-7--x-x---x-7-5--x-x-x—-2-|
|-x-x-x-10-9--x-x---x-9-7--x-x---x-7-5--x-x-x—-2-|
  

The End
This song sounds so awesome.
Comments