Seether - Truth Chords & Tabs

 

Truth Chords & Tabs

Seether Chords & Tabs

Version: 1 Type: Bass Tab 0 ratings
1 star 2 stars 3 stars 4 stars 5 stars
comments

Truth Bass Tab

   
Seether - Karma and Effect - Truth

Drop Eb tunning
Eb,A,D,G

Intro No Bass

Riff
G-|---------------------------------------------------|
D-|---------------------------------------------------|
A-|-----------------------4---------------------------|
Eb|--8-7---7-5---5-3---0-------8-7---7-5---5-3---0-3--|

Verse x 4
G-|------------------------------|
D-|------------------------------|
A-|------------------------------|
Eb|--7---10*-10*---/14--3-3-5-0--| (*Those are Tens')

Riff
[ Tab from: http://www.guitartabs.cc/tabs/s/seether/truth_btab.html ]
Chrous x 4
G-|--------------------------------|
D-|--------------------------------|
A-|--------------------------------|
Eb|--7---10*-10*---14-----7-3-5-3--|

Verse x 4

Riff

Chrous x 4

Bridge x 4
G-|-------------------------------------|
D-|-------------------------------------|
A-|-------------------------------------|
Eb|--0-0-0-0---0-0-0---3-3-3-3---3-3-3--|

Chrous

Riff

Then end with this :
G-|---------------------------------------------------|
D-|---------------------------------------------------|
A-|-----------------------4---------------------------|
Eb|--8-7---7-5---5-3---0-------8-7---7-5---5-3-----0--|

Tabbed by Phoenizxz
Please tell me if there's something wrong
Comments