Seether - Take Me Away Chords & Tabs

 

Take Me Away Chords & Tabs

Seether Chords & Tabs

Version: 4 Type: Tab 0 ratings
1 star 2 stars 3 stars 4 stars 5 stars
comments

Take Me Away Tab

Seether-Take Me Away
Tabbed By: DisturbedIbanez

Tuning: Down 1/2 step
/-Slide Up
\-Slide Down
p-Pull-Off
h-Hammer-On
()-Ghost note

Intro/Verse Riff x3
Eb|---------------------|	|----------------|
Bb|---------------------|	|----------------|
Gb|---------------------|	|----------------|
Db|-2/4--4--7---7-7-7---|x3	|-5-5-5-5-5-5-5--|
Ab|-2/4--2--5---7-7-7---|	|-5-5-5-5-5-5-3--|
Eb|-0/2--2--5---5-5-5---|	|-3-3-3-3-3-3-3--|


Chorus	
Eb|----------------------------------------------------------------|
Bb|----------------------------------------------------------------|
Gb|-6-6----------6-6------------6-6--------------------------------|
Db|-6-6-2--2-2-2-6-6-2-------2--6-6-2--2-2-2----7-7-7-7-7-7-7------|
Ab|-4-4-2--2-2-2-4-4-2-4p2h4----4-4-2--2-2-2----7-7-7-7-7-7-7------|
Eb|-----0--0-0-0-----0--------------0--0-0-0----5-5-5-7-5-5-5------|

Eb|-------------------------------------------------------------------|
Bb|-------------------------------------------------------------------|
Gb|-6-6-------------6-6------------6-6--------------------------------|
Db|-6-6-2--------2--6-6-2-------2--6-6-2-------2----7-7-7-7-7-7-7-----|
Ab|-4-4-2--4p2h4----4-4-2-4p2h4----4-4-2-4p2h4------7-7-7-7-7-7-7-----|
Eb|-----0---------------0--------------0------------5-5-5-7-5-5-5-----|

Verse Riff x3

Chorus 
[ Tab from: http://www.guitartabs.cc/tabs/s/seether/take_me_away_tab_ver_4.html ]
Bridge Part 1 x2
Eb|------------------------------------------|
Bb|------------------------------------------|
Gb|---------------4-4-4----------------4-4---|
Db|-6\4-4--6\4-4--4-4-4--6\4-4--6\4-4--4-4---|
Ab|-6\4-4--6\4-4--2-2-2--6\4-4--6\4-4--2-2---|
Eb|-4\2-2--4\2-2---------4\2-2--4\2-2--------|

Bridge Part 2 
Eb|----------------------------------------------------------------|
Bb|----------------------------------------------------------------|
Gb|----------------------------------------------------------------|
Db|-6-6-6-6-6-6-6--4-4-4-4-4-4-4--6-6-6-6-6-6-6--9-9-9-9-9-9-9-8---|
Ab|-6-6-6-6-6-6-6--4-4-4-4-4-4-4--6-6-6-6-6-6-6--9-9-9-9-9-9-9-8---|
Eb|-4-4-4-4-4-4-4--2-2-2-2-2-4-2--4-4-4-4-4-4-4--7-7-7-7-7-7-7-6---|

Eb|----------------------------------0---0----0-|
Bb|------------------------------------0---0--0-|
Gb|---------------------------------------------|
Db|-6-6-6-6-6-6-6--4-4-4-4-4-4-4----------------|
Ab|-6-6-6-6-6-6-6--4-4-4-4-4-4-4----------------|
Eb|-4-4-4-4-4-4-4--2-2-2-2-2-4-2----------------|Let the last chord ring.

Chorus Variation x2 (strum very lightly)
Eb|-----------------------------------|
Bb|----------------------------0------|
Gb|-6-6-----6-6----6-6-----------0----|
Db|-6-6-2---6-6-2--6-6-2--7-------(0)-|
Ab|-4-4-2---4-4-2--4-4-2--5-----------|
Eb|-----0-------0------0--5-----------|

Chorus x2

Bridge Part 1 x2 


THATS THE END! GREAT SONG! BE SURE TO CHECK OUT THE NEW ALBUM "KARMA AND EFFECT" ON MAY 24!
Comments