Seether - Take Me Away Chords & Tabs

 

Take Me Away Chords & Tabs

Seether Chords & Tabs

Version: 1 Type: Tab 0 ratings
1 star 2 stars 3 stars 4 stars 5 stars
comments

Take Me Away Tab

   
Verse and Prechorus (same deal):

F5                                         F#5
e------------------------------        --------------------------|
g------------------------------        --------------------------|
b------------------------------        --------------------------|
d------------------------------slide to--------------------------|
f---3--------------------------        -----4--------------------|
E---1--------------------------        -----2--------------------|
[ Tab from: http://www.guitartabs.cc/tabs/s/seether/take_me_away_tab.html ]
and then
A5
e---------------|
g---------------|
b-----2---------|
d-----2---------|
f-----0---------|
E---------------| Back to the F5...repeat 3 times before going to

G5
e------------|
g------------|
b----0-------|
d----0-------|
f----x-------|
E----3-------| (strum down quickly for 7 beats) as your transition. This follows through the prechorus.

Chorus:

C#5                 E5
e-----------I------------I-----------------|
-----------I------------I------------------|
-----------I------------I------------------|
-------6---I------------I-----2---------2--|
-------4---I-------2----I-----2--2---4-----|
E-----------I-------0----I-----------------|

It's kind of complicated, but it makes sense if you listen to the song.  Enjoy.
Comments