Seether - Sympathetic Chords & Tabs

 

Sympathetic Chords & Tabs

Seether Chords & Tabs

Version: 1 Type: Tab 0 ratings
1 star 2 stars 3 stars 4 stars 5 stars
comments

Sympathetic Tab

   
Artist: Seether
Album: Disclaimer
Song: Sympathetic
Tabber:Brad

|---0-------0-------0-------0--|
|------------------------------|
|-2---2---2---2---2---2---2---2|
|2------2-------2-------2------|x4
|------------------------------|
|------------------------------|
                            
       D           A               G
And my words will be here when I’m gone
        D     A                G    
As I’m fading away against the wind
         D         A             G
And the words you left me linger on
        D       A		    G      	
As I’m failing again now, never to change this 

Chorus
|---P.M-----|
|-----------|----------------------------------------------------------------|
|-----------|----------------------------------------------------------------|
|0-0-0-0-0-0|7-7-7-7-7-7-7-7-4-4-4-4-4-4-4-4---------------------------------|
|0-0-0-0-0-0|7-7-7-7-7-7-7-7-4-4-4-4-4-4-4-4-5-5-5-5-5-5-5-5-5-5-5-5-5-5-5-5-|
|0-0-0-0-0-0|5-5-5-5-5-5-5-5-2-2-2-2-2-2-2-2-5-5-5-5-5-5-5-5-5-5-5-5-5-5-5-5-|
|-----------|--------------------------------3-3-3-3-3-3-3-3-3-3-3-3-3-3-3-3-|

|----------------------------------------------------------------|
|----------------------------------------------------------------|
|7-7-7-7-7-7-7-7-4-4-4-4-4-4-4-4---------------------------------|
|7-7-7-7-7-7-7-7-4-4-4-4-4-4-4-4-5-5-5-5-5-5-5-5-5-5-5-5-5-5-5-5-|
|5-5-5-5-5-5-5-5-2-2-2-2-2-2-2-2-5-5-5-5-5-5-5-5-5-5-5-5-5-5-5-5-|
|--------------------------------3-3-3-3-3-3-3-3-3-3-3-3-3-3-3-3-|

        D         A          G
And it seems I’m alone here, hollow again
        D       A                 G
As I’m flailing again against the wind
         D          A                 G	
And the scars I am left with swallow again
         D       A                        G
As I’m failing again now, never to change this

Chorus
|----------------------------------------------------------------|
|----------------------------------------------------------------|
|7-7-7-7-7-7-7-7-4-4-4-4-4-4-4-4---------------------------------|
|7-7-7-7-7-7-7-7-4-4-4-4-4-4-4-4-5-5-5-5-5-5-5-5-5-5-5-5-5-5-5-5-|
|5-5-5-5-5-5-5-5-2-2-2-2-2-2-2-2-5-5-5-5-5-5-5-5-5-5-5-5-5-5-5-5-|
|--------------------------------3-3-3-3-3-3-3-3-3-3-3-3-3-3-3-3-|

|----------------------------------------------------------------|
|----------------------------------------------------------------|
|7-7-7-7-7-7-7-7-4-4-4-4-4-4-4-4---------------------------------|
|7-7-7-7-7-7-7-7-4-4-4-4-4-4-4-4-5-5-5-5-5-5-5-5-5-5-5-5-5-5-5-5-|
|5-5-5-5-5-5-5-5-2-2-2-2-2-2-2-2-5-5-5-5-5-5-5-5-5-5-5-5-5-5-5-5-|
|--------------------------------3-3-3-3-3-3-3-3-3-3-3-3-3-3-3-3-|

|----------------------------------------------------------------|
|----------------------------------------------------------------|
|7-7-7-7-7-7-7-7-4-4-4-4-4-4-4-4---------------------------------|
|7-7-7-7-7-7-7-7-4-4-4-4-4-4-4-4-5-5-5-5-5-5-5-5-5-5-5-5-5-5-5-5-|
|5-5-5-5-5-5-5-5-2-2-2-2-2-2-2-2-5-5-5-5-5-5-5-5-5-5-5-5-5-5-5-5-|
|--------------------------------3-3-3-3-3-3-3-3-3-3-3-3-3-3-3-3-|

|----------------------------------------------------------------|
|----------------------------------------------------------------|
|7-7-7-7-7-7-7-7-4-4-4-4-4-4-4-4---------------------------------|
|7-7-7-7-7-7-7-7-4-4-4-4-4-4-4-4-5-5-5-5-5-5-5-5-5-5-5-5-5-5-5-5-|
|5-5-5-5-5-5-5-5-2-2-2-2-2-2-2-2-5-5-5-5-5-5-5-5-5-5-5-5-5-5-5-5-|
|--------------------------------3-3-3-3-3-3-3-3-3-3-3-3-3-3-3-3-|
[ Tab from: http://www.guitartabs.cc/tabs/s/seether/sympathetic_tab.html ]
" The Same old feeling is taking over"
|----------------------------------------------------------------|
|----------------------------------------------------------------|
|4-4-4-4-4-4-4-4-----------------7-7-7-7-7-7-7-7-----------------|
|4-4-4-4-4-4-4-4-5-5-5-5-5-5-5-5-7-7-7-7-7-7-7-7-7-7-7-7-7-7-7-7-|
|2-2-2-2-2-2-2-2-5-5-5-5-5-5-5-5-5-5-5-5-5-5-5-5-7-7-7-7-7-7-7-7-|
|----------------3-3-3-3-3-3-3-3-----------------5-5-5-5-5-5-5-5-|

|----------------------------------------------------------------|
|----------------------------------------------------------------|
|4-4-4-4-4-4-4-4-----------------7-7-7-7-7-7-7-7-----------------|
|4-4-4-4-4-4-4-4-5-5-5-5-5-5-5-5-7-7-7-7-7-7-7-7-7-7-7-7-7-7-7-7-|
|2-2-2-2-2-2-2-2-5-5-5-5-5-5-5-5-5-5-5-5-5-5-5-5-7-7-7-7-7-7-7-7-|
|----------------3-3-3-3-3-3-3-3-----------------5-5-5-5-5-5-5-5-|

|----------------------------------------------------------------|
|----------------------------------------------------------------|
|4-4-4-4-4-4-4-4-----------------7-7-7-7-7-7-7-7-----------------|
|4-4-4-4-4-4-4-4-5-5-5-5-5-5-5-5-7-7-7-7-7-7-7-7-7-7-7-7-7-7-7-7-|
|2-2-2-2-2-2-2-2-5-5-5-5-5-5-5-5-5-5-5-5-5-5-5-5-7-7-7-7-7-7-7-7-|
|----------------3-3-3-3-3-3-3-3-----------------5-5-5-5-5-5-5-5-|

|---------------------------------|
|---------------------------------|
|4-4-4-4-4-4-4-4-----------------7|
|4-4-4-4-4-4-4-4-5-5-5-5-5-5-5-5-7|
|2-2-2-2-2-2-2-2-5-5-5-5-5-5-5-5-5|
|----------------3-3-3-3-3-3-3-3--|

Chorus
|----------------------------------------------------------------|
|----------------------------------------------------------------|
|7-7-7-7-7-7-7-7-4-4-4-4-4-4-4-4---------------------------------|
|7-7-7-7-7-7-7-7-4-4-4-4-4-4-4-4-5-5-5-5-5-5-5-5-5-5-5-5-5-5-5-5-|
|5-5-5-5-5-5-5-5-2-2-2-2-2-2-2-2-5-5-5-5-5-5-5-5-5-5-5-5-5-5-5-5-|
|--------------------------------3-3-3-3-3-3-3-3-3-3-3-3-3-3-3-3-|

|----------------------------------------------------------------|
|----------------------------------------------------------------|
|7-7-7-7-7-7-7-7-4-4-4-4-4-4-4-4---------------------------------|
|7-7-7-7-7-7-7-7-4-4-4-4-4-4-4-4-5-5-5-5-5-5-5-5-5-5-5-5-5-5-5-5-|
|5-5-5-5-5-5-5-5-2-2-2-2-2-2-2-2-5-5-5-5-5-5-5-5-5-5-5-5-5-5-5-5-|
|--------------------------------3-3-3-3-3-3-3-3-3-3-3-3-3-3-3-3-|

|----------------------------------------------------------------|
|----------------------------------------------------------------|
|7-7-7-7-7-7-7-7-4-4-4-4-4-4-4-4---------------------------------|
|7-7-7-7-7-7-7-7-4-4-4-4-4-4-4-4-5-5-5-5-5-5-5-5-5-5-5-5-5-5-5-5-|
|5-5-5-5-5-5-5-5-2-2-2-2-2-2-2-2-5-5-5-5-5-5-5-5-5-5-5-5-5-5-5-5-|
|--------------------------------3-3-3-3-3-3-3-3-3-3-3-3-3-3-3-3-|

|----------------------------------------------------------------|
|----------------------------------------------------------------|
|7-7-7-7-7-7-7-7-4-4-4-4-4-4-4-4---------------------------------|
|7-7-7-7-7-7-7-7-4-4-4-4-4-4-4-4-5-5-5-5-5-5-5-5-5-5-5-5-5-5-5-5-|
|5-5-5-5-5-5-5-5-2-2-2-2-2-2-2-2-5-5-5-5-5-5-5-5-5-5-5-5-5-5-5-5-|
|--------------------------------3-3-3-3-3-3-3-3-3-3-3-3-3-3-3-3-|

|----------------------------------------------------------------|
|----------------------------------------------------------------|
|7-7-7-7-7-7-7-7-4-4-4-4-4-4-4-4---------------------------------|
|7-7-7-7-7-7-7-7-4-4-4-4-4-4-4-4-5-5-5-5-5-5-5-5-5-5-5-5-5-5-5-5-|
|5-5-5-5-5-5-5-5-2-2-2-2-2-2-2-2-5-5-5-5-5-5-5-5-5-5-5-5-5-5-5-5-|
|--------------------------------3-3-3-3-3-3-3-3-3-3-3-3-3-3-3-3-|

|----------------------------------------------------------------|------|
|----------------------------------------------------------------|------|
|7-7-7-7-7-7-7-7-4-4-4-4-4-4-4-4---------------------------------|--7~--|
|7-7-7-7-7-7-7-7-4-4-4-4-4-4-4-4-5-5-5-5-5-5-5-5-5-5-5-5-5-5-5-5-|--7~--|
|5-5-5-5-5-5-5-5-2-2-2-2-2-2-2-2-5-5-5-5-5-5-5-5-5-5-5-5-5-5-5-5-|--5~--|
|--------------------------------3-3-3-3-3-3-3-3-3-3-3-3-3-3-3-3-|------|


There we Go!!!! that's the end of the song, It's a total |{iller tune

if you enjoy this tab, let me know
If you have critisicm, let me know
If you have corrections. let me know

Send em all to
nagle5000@yahoo.com
Comments