Seether - Sold Me Chords & Tabs

 

Sold Me Chords & Tabs

Seether Chords & Tabs

Version: 2 Type: Tab 0 ratings
1 star 2 stars 3 stars 4 stars 5 stars
comments

Sold Me Tab

   
Sold Me
Seether, Disclaimer II
By Jon T. aka AudioZero
jontoy64@aol.com

Hey, this is my first tab ever written.  Let me know how it is, okay?

Tuning: Dropped D Half Step Down
C#, G#, C#, F#, A#, D#

| /  slide up
| \  slide down
| h  hammer-on
| p  pull-off
| ~  vibrato
| +  harmonic
| x  Mute note


Intro:

D#|------------------------------------------------|
A#|------------------------------------------------|
F#|----------------------------------------------7-|
C#|-7h8p7h8p7----7h8p7h8p7----7h8p7h8p7----7h8p0-7-|  Play Twice
G#|----------------------------------------------5-|
C#|------------------------------------------------|

D#|-----------------------------------------|
A#|-----------------------------------------|
F#|--------------------------------------7--|
C#|--------------------------------------7--|
G#|-0-0-x-x-0-0-0-x-x-0-0-0-x-x-0-0-0--7-5--|  Play Four Times
C#|-0-0-x-x-0-0-0-x-x-0-0-0-x-x-0-0-0--7----|




Verse: 

D#|-----------|
A#|-----------|
F#|-----------|
C#|-7h8p7h8p7-| Play 3 times
G#|-----------|
C#|-----------|

D#|-----|
A#|-----|
F#|---7-|
C#|---7-|  Play this the 4th time
G#|-0-5-|
C#|-0---|

Then
D#|----------------------------------------|
A#|----------------------------------------|
F#|--------------------------------------7-|
C#|--------------------------------------7-|
G#|-0-0-x-x-0-0-0-x-x-0-0-0-x-x-0-0-0--7-5-|  Play 4 Times
C#|-0-0-x-x-0-0-0-x-x-0-0-0-x-x-0-0-0--7---|

On Second Verse play this the fourth time
D#|---------------------|
A#|---------------------|
F#|-------------------3-|
C#|-------------------3-|
G#|-0-0-0-3-0-0-0-3-3-1-|  
C#|-0-0-0-3-0-0-0-3-3---|




Chorus: 
[ Tab from: http://www.guitartabs.cc/tabs/s/seether/sold_me_tab_ver_2.html ]
D#|------------------------------------------------|
A#|------------------------------------------------|
F#|-------8-7-----7/8-7-----7/8-7--3-3-3-3-3-3-3-3-|
C#|-5-5-5-8-7---3-7/8-7---1-7/8-7--3-3-3-3-3-3-3-3-|
G#|-5-5-5-6-5---3-5/6-5---1-5/6-5--1-1-1-1-1-1-1-1-|  Play 3 times
C#|-5-5-5-------3---------1------------------------|

Then
D#|-------------------------------|
A#|-------------------------------|
F#|-------8-7-----7/8-7-----7/8-7-|
C#|-5-5-5-8-7---3-7/8-7---1-7/8-7-|
G#|-5-5-5-6-5---3-5/6-5---1-5/6-5-| 
C#|-5-5-5-------3---------1-------|

On First Chorus play this after
D#|------------------------------------------------------------------------------|
A#|------------------------------------------------------------------------------|
F#|--------------------------------------7-------------------------------------3-|
C#|--------------------------------------7-------------------------------------3-|
G#|-0-0-x-x-0-0-0-x-x-0-0-0-x-x-0-0-0--7-5-0-0-x-x-0-0-0-x-x-0-0-0-3-0-0-0-3-3-1-|  
C#|-0-0-x-x-0-0-0-x-x-0-0-0-x-x-0-0-0--7---0-0-x-x-0-0-0-x-x-0-0-0-3-0-0-0-3-3---|





Bridge:

D#|----------------------10-5----------------------------10-10-5-|
A#|---------3--------------------------------3-------------------|
F#|-----------2--------------------7-----------2-----------------|
C#|--------------------------------7-----------------------------|
G#|-x-x-x-x------x-x-x-x-------x-x-5-x-x-x-x-----x-x-x-x---------|
C#|-x-x-x-x------x-x-x-x-------x-x---x-x-x-x-----x-x-x-x---------|


D#|--------------------------|
A#|--------------------------|
F#|-8-7--8-7--8-7--8-7--8-10-|
C#|-8-7--8-7--8-7--8-7--8-10-|
G#|-6-5--6-5--6-5--6-5--6-8--|
C#|--------------------------|


That should be about it.  Piece together the choruses and verses and you've got the song.
There may be a couple of filler chords that I might have missed, but since I missed them
that means they're not too noticeable anyways.  Once again, this was my first tab, so if
You've got any questions e-mail me at jontoy64@aol.com.
Comments