Seether - Simplest Mistake Chords & Tabs

 

Simplest Mistake Chords & Tabs

Seether Chords & Tabs

Version: 1 Type: Tab 0 ratings
1 star 2 stars 3 stars 4 stars 5 stars
comments

Simplest Mistake Tab

    intro        "repeat"
   e ---------------------------------------------------------------------|
   b ---------------------------------------------------------------------|
   g ---------------------------------------------------------------------|
   d ------------------------------------------------------5--------------|
   a ------5---3^0-------5---3^0-------5---3^0-------5---3----------------|
   d --0^3---0-------0^3---0-------0^3---0-------0^3---0------------------|
      "Watch it blow my mind..."    "and let it slow the time..."
                                                     |Harmonics...|
   e ---------------------------------------------------------------------|
   b ---------------------------------------------------------------------|
   g ---------------------------------------------------------------------|
   d ---------------------------------------------------------------------|
   a ---------0-----------------------------0--------------------12-------|
   d --000-00-0----------------------000-00-0--------121212-1212----------|
      Chorus
      "It feels like im loosing again..."
   e ---------------------------------------------------------------------|
   b ---------------------------------------------------------------------|
   g ---------------------------------------------------------------------|
   d ---0-00---8-88---3-33---1-1-1^3-0------------------------------------|
   a ---0-00---8-88---3-33---1-1-1^3-0------------------------------------|
   d ---0-00---8-88---3-33---1-1-1^3-0------------------------------------|
      "So you make, the simplest mistake..."
   e ---------------------------------------------------------------------|
   b ---------------------------------------------------------------------|
   g ---------------------------------------------------------------------|
   d ---------------------------------------------------------------------|
   a ---------0----------0---------0--0^2-2/3-3/5----------0----------0---|
   d --000-00-0---000-00-0--000-00-0--0^2-2/3-3/5---000-00-0---000-00-0---|

   e ---------------------------------------------------------------------|
   b ---------------------------------------------------------------------|
   g ---------------------------------------------------------------------|
   d ---------------------------------------------------------------------|
   a ---------0--3^5-5^3-3\2----------------------------------------------|
   d --000-00-0--3^5-5^3-3\2----------------------------------------------|
      Outro
         "repeat"
   e ---------------------------------------------------------------------|
   b ---------------------------------------------------------------------|
   g ---------------------------------------------------------------------|
   d --7--3---------------------------------------------------------------|
   a --5--1--7--5-----3-5-3-0---------------------------------------------|
   d --------7--5--00-3-5-3-0---------------------------------------------|
[ Tab from: http://www.guitartabs.cc/tabs/s/seether/simplest_mistake_tab.html ]
Comments