Seether - Remedy Chords & Tabs

 

Remedy Chords & Tabs

Seether Chords & Tabs

Version: 9 Type: Tab 0 ratings
1 star 2 stars 3 stars 4 stars 5 stars
comments

Remedy Tab

   
these are my tabs for Remedy off "Karma & Effect"
Drop D


Opening Riff (Pat)
|------------------------|
|------------------------|
|------------------------|
|-2--X-0-2-2-0-5---------|
|-2--X-0-2-2-0-5---------|
|-2--X-0-2-2-0-5---------|

(Shaun)
|--16b------15-------|
|--------14----------|
|--------------------|
|--------------------|
|--------------------|
|--------------------|

Heavy
|-------------------------|
|-------------------------|
|-------------------------|
|-2--X-0-2-2-0-5----------|
|-2--X-0-2-2-0-5----------|
|-2--X-0-2-2-0-5----------|

(Shaun) distortion
|-------------------|---------------------|
|-------------------|---14b-14--12--------|
|-14b--14b--12------|---------------------|
|-12b--12b--10----X3|---------------------|
|-------------------|---------------------|
|-------------------|---------------------|

Verse Riff(clean)
|---------------------------------|
|---------------------------------|
|---------------------------------|
|-----2-------0-------2-------5---|
|---2---2---0---0---2---2---5---5-|
|-2-------0-------2-------5-------|


pre-Chorus("if you want me hold me back") heavy
|-------------------------|
|-------------------------|
|-------------------------|
|--7-7-7-7-7-7-7-7-3-3-3-3|
|--7-7-7-7-7-7-7-7-3-3-3-3|
|--7-7-7-7-7-7-7-7-3-3-3-3|


Chorus (heavy)
|----------------------------------|
|----------------------------------|
|----------------------------------|
|-2--X-0-2-2--5-4----------7x7-5---|
|-2--X-0-2-2--5-4----X3----7x7-5---|
|-2--X-0-2-2--5-4----------7x7-5---|

Verse 2(clean)
|---------------------------------|
|---------------------------------|
|---------------------------------|
|-----2-------0-------2-------5---|
|---2---2---0---0---2---2---5---5-|
|-2-------0-------2-------5-------|

at "it Aches in Every bone..." Shaun plays this in the backround (distortion)
|-------------------|
|-------------------|
|-------------------|
|-2---0---2---5-----|
|-2---0---2---5-----|
|-2---0---2---5-----|
[ Tab from: http://www.guitartabs.cc/tabs/s/seether/remedy_tab_ver_9.html ]
pre-Chorus("if you want me hold me back") Heavy
|-------------------------|
|-------------------------|
|-------------------------|
|--7-7-7-7-7-7-7-7-3-3-3-3|
|--7-7-7-7-7-7-7-7-3-3-3-3|
|--7-7-7-7-7-7-7-7-3-3-3-3|

Chorus Heavy
|----------------------------------|
|----------------------------------|
|----------------------------------|
|-2--X-0-2-2-0-5-----------7x7-5---|
|-2--X-0-2-2-0-5-----X3----7x7-5---|
|-2--X-0-2-2-0-5-----------7x7-5---|

Bridge
Hold your eyes closed take me in
|----------------------------------------|
|----------------------------------------|
|--------2-2-2---------------------------|
|-3-3-3--2-2-2--------3-3-3--2-2-2-0-3---| X2
|-3-3-3--0-0-0--------3-3-3--2-2-2-0-3---|
|-3-3-3--0-0-0--------3-3-3--2-2-2-0-3---|

(Pat) semi-heavy
|----------------------|
|----------------------|
|----------------------|
|-2--X-0-2-2--5-4------|
|-2--X-0-2-2--5-4------|
|-2--X-0-2-2--5-4------|

(Shaun) distorted
|--16b------15-------|
|--------14----------|
|--------------------|
|--------------------|
|--------------------|
|--------------------|

(Pat) heavy
|----------------------------------|
|----------------------------------|
|----------------------------------|
|-2--X-0-2-2-0-5-----------7x7-5---|
|-2--X-0-2-2-0-5-----X3----7x7-5---|
|-2--X-0-2-2-0-5-----------7x7-5---|

Solo (Shaun)
|-------------------|---------------------|
|-------------------|---14b-14--12--------|
|-14b--14b--12------|---------------------|
|-12b--12b--10----X3|---------------------|
|-------------------|---------------------|
|-------------------|---------------------|

--------------------------------------|
--------------------------------14b---|
-14b--14b---14b---14b--14b------------|
-12b--12b---12b---12b--12b------------|
--------------------------------------|
--------------------------------------|

Chorus heavy
|----------------------------------|
|----------------------------------|
|----------------------------------|
|-2--X-0-2-2-0-5-----------7x7-5---|
|-2--X-0-2-2-0-5-----X3----7x7-5---|
|-2--X-0-2-2-0-5-----------7x7-5---|
Comments