Seether - Remedy Chords & Tabs

 

Remedy Chords & Tabs

Seether Chords & Tabs

Version: 6 Type: Tab 0 ratings
1 star 2 stars 3 stars 4 stars 5 stars
comments

Remedy Tab

Remedy - Seether
Drop D & 1/2 step down Tuning
Tabbed By YoYoJoe

qb - quarter bend
hb - half bend
fb - full bend
r - release
h - hammer-on
p - pull-off
X - Mute string
~ - vibrate
PM - palm mute

updated 27/5/05 - fixed tuning, now open power chords are half step down
updated 30/5/05 - fixed main riff & chorus
updated 07/7/06 - fixed high pitched part in intro and solo

Main Riff
|----------------|
|----------------|
|----------------|
|-2--X-0-2-2-0-5-|
|-2--X-0-2-2-0-5-|
|-2--X-0-2-2-0-5-|

Intro (harmonics)
|---|------------------|
|-4-|----------4-------|
|---|----------------4-|
|---|--------------5---|
|---|------------------|
|---|------------------|

Giddy over intro (I fixed this part)
|-------------------|----------------------|
|-12----12-12-9--10-|----15----15-15-13-12-|
|-14fb--14-14-10-12-|----17fb--17-17-15-14-|
|-------------------|-X3-------------------|
|-------------------|----------------------|
|-------------------|----------------------|

Verse Riff(clean)
|---------------------------------|
|---------------------------------|
|---------------------------------|
|-----2-------0-------2-------5---|
|---2---2---0---0---2---2---5---5-|
|-2-------0-------2-------5-------|

On top of riff(clean)

|----------|
|-10-12~~~-|
|----------|
|----------|
|----------|
|----------|

Bridge("if you want me hold me back")
|-----------------|
|-----------------|
|-----------------|
|-7777777733333---|
|-7777777733333---|
|-7777777733333---|

|-----------------|
|-----------------|
|---------------4-|
|-----------------|
|-----------------|
|-----------------|
                *Harmonic
[ Tab from: http://www.guitartabs.cc/tabs/s/seether/remedy_tab_ver_6.html ]
Chorus
|----------------|------------------|
|----------------|------------------|
|----------------|------------------|
|-2--X-0-2-2-0-5-|-X3-7--X-7-7-5-5--|
|-2--X-0-2-2-0-5-|----7--X-7-7-5-5--|
|-2--X-0-2-2-0-5-|----7--X-7-7-5-5--|

Verse 2(distorted)
|---------------------------------|
|---------------------------------|
|---------------------------------|
|-----2-------0-------2-------5---|
|---2---2---0---0---2---2---5---5-|
|-2-------0-------2-------5-------|
PM___   _____   _____   _____   _

On top of riff(clean)

|----------|
|-10-12~~~-|
|----------|
|----------|
|----------|
|----------|

Verse 3
|---------------------------------|
|---------------------------------|
|---------------------------------|
|-7-7-7-7-7-7-7-7-5-5-5-5-5-0-0-0-| X4
|-7-7-7-7-7-7-7-7-5-5-5-5-5-0-0-0-|
|-7-7-7-7-7-7-7-7-5-5-5-5-5-0-0-0-|

(Main verse 4 times palm muted, w/intro harmonic riff)

Solo (again, LOTS of overdrive and distortion to make it sound right)
|-------------------|----------------------|
|-12----12-12-9--10-|----15----15-15-13-12-|
|-14fb--14-14-10-12-|----17fb--17-17-15-14-|
|-------------------|-X3-------------------|
|-------------------|----------------------|
|-------------------|----------------------|

|--------------------------------|
|-12---12---12---12---12---9--10-|
|-14fb-14fb-14fb-14fb-14fb-11-12-|
|--------------------------------|
|--------------------------------|
|--------------------------------|

|-----------------------------------|
|-12---12---12---12---15---15-15-15-|
|-14fb-14fb-14fb-14fb-17fb----------|
|-----------------------------------|
|-----------------------------------|
|-----------------------------------|

This is a fricken awesome song!
Send me a comment or PM if you find something wrong with it.
Comments