Seether - Remedy Chords & Tabs

 

Remedy Chords & Tabs

Seether Chords & Tabs

Version: 3 Type: Tab 10 ratings
1 star 2 stars 3 stars 4 stars 5 stars
comments

Remedy Tab

   
tuning: Db Ab Db Gb Bb Eb

Intro
Eb--------------------|
Bb--------------------|
Gb--------------------| 
Db---2---0-2-2-0-5----|-play 12 times
Ab---2---0-2-2-0-5----|
Db---2---0-2-2-0-5----|

Verse
Eb-------------------------------------|
Bb-------------------------------------|
Gb-------------------------------------|
Db-----2--------0-------2-------5------| 
Ab---2---2----0---0---2---2---5---5----|
Db-2--------0-------2-------5----------|
[ Tab from: http://www.guitartabs.cc/tabs/s/seether/remedy_tab_ver_3.html ]
Pre Chorus
Eb---------------|
Bb---------------|
Gb---------------|
Db-7-7-7-7--3-3--|
Ab-7-7-7-7--3-3--|
Db-7-7-7-7--3-3--|

Chorus
	
Eb--------------------|         Eb--------------------| 
Bb--------------------|         Bb--------------------| 
Gb--------------------|         Gb--------------------| 
Db---2---0-2-2-0-5----|-3 times Db---7-7-7-7-0-3-3-3--| -1 time
Ab---2---0-2-2-0-5----|         Ab---7-7-7-7-0-3-3-3--| 
Db---2---0-2-2-0-5----|         Db---7-7-7-7-0-3-3-3--|   
   

Bridge
Eb------------------------|
Bb------------------------|
Gb--5--5--5--5--2--2--2--2|
Db--5--5--5--5--2--2--2--2| 4 times
Ab--3--3--3--3--0--0--0--0|
Db------------------------|

Comments