Seether - Pride Chords & Tabs

 

Pride Chords & Tabs

Seether Chords & Tabs

Version: 3 Type: Tab 0 ratings
1 star 2 stars 3 stars 4 stars 5 stars
comments

Pride Tab

   
-------------------------------------------------------------------------------
			     PRIDE - Seether
-------------------------------------------------------------------------------
Tabbed by:Jeremy Kowalczyk
Email:RudeAwakening111@aol.com

Tuning:DADGBE

Intro
e|----------------------------------------------------------------------------
B|----------------------------------------------------------------------------
G|----------------------------------------------------------------------------
D|--1p0-3p00------------------------------------------------------------------
A|--1p0-3p00------------------------------------------------------------------
D|--1p0-3p00------------------------------------------------------------------

Verse
e|---------------------------------------------------------------------------
B|---------------------------------------------------------------------------
G|---------------------------------------------------------------------------
D|--1p0-3p0--x-x-------------------------------------------------------------
A|--1p0-3p0--x-x-------------------------------------------------------------
D|--1p0-3p0--x-x-------------------------------------------------------------

Verse Continued("In Time You Will")figure out the strumming!
e|---------------------------------------------------------------------------|
B|---------------------------------------------------------------------------|
G|---------------------------------------------------------------------------|
D|--3--5---------------------------------------------------------------------|
A|--1--5---------------------------------------------------------------------|
D|-----5---------------------------------------------------------------------|
[ Tab from: http://www.guitartabs.cc/tabs/s/seether/pride_tab_ver_3.html ]
Chorus(figure out the strumming)
e|----------------------------------------------------------------------------
B|----------------------------------------------------------------------------
G|----------------------------------------------------------------------------
D|--7--5--3---1p0-3p0-1p0-----------------------------------------------------
A|--5--3--1---1p0-3p0-1p0-----------------------------------------------------
D|------------1p0-3p0-1p0-----------------------------------------------------

Verse

Chorus

Bridge("i am violence")
e|-----------------------------------------------------------------------------
B|-----------------------------------------------------------------------------
G|-----7slideup10-----10slidedown-7------7slideup10-----10slideup-12-----------
D|--0--x--------x---0--x----------x---0--x--------x---0--x---------x-----------
A|--0--5slideup-8---0--8slidedown-5---0--5slideup-8---0--8slideup-10-----------
D|--0---------------0-----------------0---------------0------------------------

Brige Continued(Then do that ^^^^^^ 4 times but on the last part of the 4th time
do this.........)fgure out the strumming
e|--------------------------------------------------------------------------
B|--------------------------------------------------------------------------
G|--14--15--17--------------------------------------------------------------
D|--x---x---x---------------------------------------------------------------
A|--12--13--15--------------------------------------------------------------
D|--------------------------------------------------------------------------

Chorus

| /  slide up
| \  slide down
| h  hammer-on
| p  pull-off
| ~  vibrato
| +  harmonic
| x  Mute note
===============================================================================
Thats the whole song i know its right,have fun!
Comments