Seether - Pride Chords & Tabs

 

Pride Chords & Tabs

Seether Chords & Tabs

Version: 1 Type: Tab 0 ratings
1 star 2 stars 3 stars 4 stars 5 stars
comments

Pride Tab

Artist:Seether
Album: Disclaimer
Song: Pride
Tabber: Brad

U = Strum Down
V = Strum Up   

Intro
|-----------------------|
|-----------------------|
|--------7----------5---|
|0p1p3p0-x--0p1p3p0-x---|x8
|0p1p3p0-5--0p1p3p0-3---|
|0p1p3p0----0p1p3p0-----|

1st Verse
|------------|   |----------------------------------------------------|
|------------|   |----------------------------------------------------|
|------------|   |10--1010-10---10--1010-10/7---7-7--7----7---7-7--7--|
|0p1p3p0-3-3-|x4 |10--1010-10---10--1010-10/7---7-7--7----7---7-7--7--|
|0p1p3p0-3-3-|   |8---8-8--8----8---8-8--8-/5---5-5--5----5---5-5--5--|
|0p1p3p0-3-3-|   |8---8-8--8----8---8-8--8-/5---5-5--5----5---5-5--5--|
	            U   U V  V    U   U V  V  U   U V  V    U   U V  V 

|------------|   |----------------------------------------------------|
|------------|   |----------------------------------------------------|
|------------|   |10--1010-10---10--1010-10\7---7-7--7----7---7-7--7--|
|0p1p3p0-3-3-|x4 |10--1010-10---10--1010-10\7---7-7--7----7---7-7--7--|
|0p1p3p0-3-3-|   |8---8-8--8----8---8-8--8-\5---5-5--5----5---5-5--5--|
|0p1p3p0-3-3-|   |8---8-8--8----8---8-8--8-\5---5-5--5----5---5-5--5--|
 	            U   U V  V    U   U V  V  U   U V  V    U   U V  V 

1st Chorus
|-------------------------------------------------------|
|-------------------------------------------------------|
|7---7-7--7---7---7-7--7/12---12-12--12---12---12-12--12|
|7---7-7--7---7---7-7--7/12---12-12--12---12---12-12--12|
|0---0-0--0---0---0-0--0/10---10-10--10---10---10-10--10|
|0---0-0--0---0---0-0--0/10---10-10--10---10---10-10--10|
 U   U V  V   U   U V  V  U    U  V   V    U    U  V   V  

|---------------------------------------------------|
|---------------------------------------------------|
|10--1010-10---10--1010-10---10--1010-10---1010-----|
|10--1010-10---10--1010-10---10--1010-10---1010--3-3|
|8---8-8--8----8---8-8--8----8---8-8--8----8-8---3-3|
|8---8-8--8----8---8-8--8----8---8-8--8----8-8---3-3|
 U   U V  V    U   U V  V    U   U V  V    U V     

|-------------------------------------------------------|
|-------------------------------------------------------|
|7---7-7--7---7---7-7--7/12---12-12--12---12---12-12--12|
|7---7-7--7---7---7-7--7/12---12-12--12---12---12-12--12|
|0---0-0--0---0---0-0--0/10---10-10--10---10---10-10--10|
|0---0-0--0---0---0-0--0/10---10-10--10---10---10-10--10|
 U   U V  V   U   U V  V  U    U  V   V    U    U  V   V  

|---------------------------------------------------|
|---------------------------------------------------|
|10--1010-10---10--1010-10---10--1010-10---1010-----|
|10--1010-10---10--1010-10---10--1010-10---1010--3-3|
|8---8-8--8----8---8-8--8----8---8-8--8----8-8---3-3|
|8---8-8--8----8---8-8--8----8---8-8--8----8-8---3-3|
 U   U V  V    U   U V  V    U   U V  V    U V     

2nd Verse
|------------|   |----------------------------------------------------|
|------------|   |----------------------------------------------------|
|------------|X8 |10--1010-10---10--1010-10/7---7-7--7----7---7-7--7--|
|0p1p3p0-3-3-|   |10--1010-10---10--1010-10/7---7-7--7----7---7-7--7--|
|0p1p3p0-3-3-|   |8---8-8--8----8---8-8--8-/5---5-5--5----5---5-5--5--| 
|0p1p3p0-3-3-|   |8---8-8--8----8---8-8--8-/5---5-5--5----5---5-5--5--|
        |P.M|     U   U V  V    U   U V  V  U   U V  V    U   U V  V 

|------------|   |----------------------------------------------------|
|------------|   |----------------------------------------------------|
|------------|   |10--1010-10---10--1010-10\7---7-7--7----7---7-7--7--|
|0p1p3p0-3-3-|x4 |10--1010-10---10--1010-10\7---7-7--7----7---7-7--7--|
|0p1p3p0-3-3-|   |8---8-8--8----8---8-8--8-\5---5-5--5----5---5-5--5--|
|0p1p3p0-3-3-|   |8---8-8--8----8---8-8--8-\5---5-5--5----5---5-5--5--|
 	            U   U V  U    U   U V  U  U   U V  U    U   U V  U 

2nd Chorus
|-------------------------------------------------------|
|-------------------------------------------------------|
|7---7-7--7---7---7-7--7/12---12-12--12---12---12-12--12|
|7---7-7--7---7---7-7--7/12---12-12--12---12---12-12--12|
|0---0-0--0---0---0-0--0/10---10-10--10---10---10-10--10|
|0---0-0--0---0---0-0--0/10---10-10--10---10---10-10--10|
 U   U V  V   U   U V  V  U    U  V   V    U    U  V   V  

|---------------------------------------------------|
|---------------------------------------------------|
|10--1010-10---10--1010-10---10--1010-10---1010-----|
|10--1010-10---10--1010-10---10--1010-10---1010--3-3|
|8---8-8--8----8---8-8--8----8---8-8--8----8-8---3-3|
|8---8-8--8----8---8-8--8----8---8-8--8----8-8---3-3|
 U   U V  V    U   U V  V    U   U V  V    U V     

|-------------------------------------------------------|
|-------------------------------------------------------|
|7---7-7--7---7---7-7--7/12---12-12--12---12---12-12--12|
|7---7-7--7---7---7-7--7/12---12-12--12---12---12-12--12|
|0---0-0--0---0---0-0--0/10---10-10--10---10---10-10--10|
|0---0-0--0---0---0-0--0/10---10-10--10---10---10-10--10|
 U   U V  V   U   U V  V  U    U  V   V    U    U  V   V  

|---------------------------------------------------|
|---------------------------------------------------|
|10--1010-10---10--1010-10---10--1010-10---1010-----|
|10--1010-10---10--1010-10---10--1010-10---1010--3-3|
|8---8-8--8----8---8-8--8----8---8-8--8----8-8---3-3|
|8---8-8--8----8---8-8--8----8---8-8--8----8-8---3-3|
 U   U V  V    U   U V  V    U   U V  V    U V     

|-------------------------------------------------------|
|-------------------------------------------------------|
|7---7-7--7---7---7-7--7/12---12-12--12---12---12-12--12|
|7---7-7--7---7---7-7--7/12---12-12--12---12---12-12--12|
|0---0-0--0---0---0-0--0/10---10-10--10---10---10-10--10|
|0---0-0--0---0---0-0--0/10---10-10--10---10---10-10--10|
 U   U V  V   U   U V  V  U    U  V   V    U    U  V   V  

|---------------------------------------------------|
|---------------------------------------------------|
|10--1010-10---10--1010-10---10--1010-10---1010-----|
|10--1010-10---10--1010-10---10--1010-10---1010--3-3|
|8---8-8--8----8---8-8--8----8---8-8--8----8-8---3-3|
|8---8-8--8----8---8-8--8----8---8-8--8----8-8---3-3|
 U   U V  V    U   U V  V    U   U V  V    U V     

|-------------------------------------------------------|
|-------------------------------------------------------|
|7---7-7--7---7---7-7--7/12---12-12--12---12---12-12--12|
|7---7-7--7---7---7-7--7/12---12-12--12---12---12-12--12|
|0---0-0--0---0---0-0--0/10---10-10--10---10---10-10--10|
|0---0-0--0---0---0-0--0/10---10-10--10---10---10-10--10|
 U   U V  V   U   U V  V  U    U  V   V    U    U  V   V  

|---------------------------------------------------|
|---------------------------------------------------|
|10--1010-10---10--1010-10---10--1010-10---1010-----|
|10--1010-10---10--1010-10---10--1010-10---1010--3-3|
|8---8-8--8----8---8-8--8----8---8-8--8----8-8---3-3|
|8---8-8--8----8---8-8--8----8---8-8--8----8-8---3-3|
 U   U V  V    U   U V  V    U   U V  V    U V    
Interlude
|------------------------------------|
|------------------------------------|
|--5/7-7----7-\5-5----5/7-7----10-10-|
|--x/x-x----x-\x-x----x/x-x----x--x--|X4
|--3/5-5----5-\3-3----3/5-5----8--8--|
|0--------0---------0--------0-------|
[ Tab from: http://www.guitartabs.cc/tabs/s/seether/pride_tab.html ]
|------------------------------------------------------|
|------------------------------------------------------|
|--12/14-14-14----14/15-15-15----15/17--17--19--17--15-|x2
|---x/x--x--x-----x-/x--x--x-----x-/x---x---x---x---x--|
|--10/12-12-12----12/13-13-13----13/15--15--17--15--13-|
|0--------------0--------------0-----------------------|

3rd Chorus
|------------|   |----------------------------------------------------|
|------------|   |----------------------------------------------------|
|------------|   |10--1010-10---10--1010-10/7---7-7--7----7---7-7--7--|
|0p1p3p0-3-3-|x4 |10--1010-10---10--1010-10/7---7-7--7----7---7-7--7--|
|0p1p3p0-3-3-|   |8---8-8--8----8---8-8--8-/5---5-5--5----5---5-5--5--|
|0p1p3p0-3-3-|   |8---8-8--8----8---8-8--8-/5---5-5--5----5---5-5--5--|
	            U   U V  V    U   U V  V  U   U V  V    U   U V  V 

|------------|   |----------------------------------------------------|
|------------|   |----------------------------------------------------|
|------------|   |10--1010-10---10--1010-10\7---7-7--7----7---7-7--7--|
|0p1p3p0-3-3-|x4 |10--1010-10---10--1010-10\7---7-7--7----7---7-7--7--|
|0p1p3p0-3-3-|   |8---8-8--8----8---8-8--8-\5---5-5--5----5---5-5--5--|
|0p1p3p0-3-3-|   |8---8-8--8----8---8-8--8-\5---5-5--5----5---5-5--5--|
 	            U   U V  U    U   U V  U  U   U V  U    U   U V  U 

|------------|   |----------------------------------------------------|
|------------|   |----------------------------------------------------|
|------------|   |10--1010-10---10--1010-10/7---7-7--7----7---7-7--7--|
|0p1p3p0-3-3-|x4 |10--1010-10---10--1010-10/7---7-7--7----7---7-7--7--|
|0p1p3p0-3-3-|   |8---8-8--8----8---8-8--8-/5---5-5--5----5---5-5--5--|
|0p1p3p0-3-3-|   |8---8-8--8----8---8-8--8-/5---5-5--5----5---5-5--5--|
	            U   U V  V    U   U V  V  U   U V  V    U   U V  V 

|------------|   |----------------------------------------------------|
|------------|   |----------------------------------------------------|
|------------|   |10--1010-10---10--1010-10\7---7-7--7----7---7-7--7--|
|0p1p3p0-3-3-|x4 |10--1010-10---10--1010-10\7---7-7--7----7---7-7--7--|
|0p1p3p0-3-3-|   |8---8-8--8----8---8-8--8-\5---5-5--5----5---5-5--5--|
|0p1p3p0-3-3-|   |8---8-8--8----8---8-8--8-\5---5-5--5----5---5-5--5--|
 	            U   U V  U    U   U V  U  U   U V  U    U   U V  U 

3rd Chorus
|-------------------------------------------------------|
|-------------------------------------------------------|
|7---7-7--7---7---7-7--7/12---12-12--12---12---12-12--12|
|7---7-7--7---7---7-7--7/12---12-12--12---12---12-12--12|
|0---0-0--0---0---0-0--0/10---10-10--10---10---10-10--10|
|0---0-0--0---0---0-0--0/10---10-10--10---10---10-10--10|
 U   U V  V   U   U V  V  U    U  V   V    U    U  V   V  

|---------------------------------------------------|
|---------------------------------------------------|
|10--1010-10---10--1010-10---10--1010-10---1010-----|
|10--1010-10---10--1010-10---10--1010-10---1010--3-3|
|8---8-8--8----8---8-8--8----8---8-8--8----8-8---3-3|
|8---8-8--8----8---8-8--8----8---8-8--8----8-8---3-3|
 U   U V  V    U   U V  V    U   U V  V    U V     

|-------------------------------------------------------|
|-------------------------------------------------------|
|7---7-7--7---7---7-7--7/12---12-12--12---12---12-12--12|
|7---7-7--7---7---7-7--7/12---12-12--12---12---12-12--12|
|0---0-0--0---0---0-0--0/10---10-10--10---10---10-10--10|
|0---0-0--0---0---0-0--0/10---10-10--10---10---10-10--10|
 U   U V  V   U   U V  V  U    U  V   V    U    U  V   V  

|---------------------------------------------------|
|---------------------------------------------------|
|10--1010-10---10--1010-10---10--1010-10---1010-----|
|10--1010-10---10--1010-10---10--1010-10---1010--3-3|
|8---8-8--8----8---8-8--8----8---8-8--8----8-8---3-3|
|8---8-8--8----8---8-8--8----8---8-8--8----8-8---3-3|
 U   U V  V    U   U V  V    U   U V  V    U V     

|-------------------------------------------------------|
|-------------------------------------------------------|
|7---7-7--7---7---7-7--7/12---12-12--12---12---12-12--12|
|7---7-7--7---7---7-7--7/12---12-12--12---12---12-12--12|
|0---0-0--0---0---0-0--0/10---10-10--10---10---10-10--10|
|0---0-0--0---0---0-0--0/10---10-10--10---10---10-10--10|
 U   U V  V   U   U V  V  U    U  V   V    U    U  V   V  

|---------------------------------------------------|
|---------------------------------------------------|
|10--1010-10---10--1010-10---10--1010-10---1010-----|
|10--1010-10---10--1010-10---10--1010-10---1010--3-3|
|8---8-8--8----8---8-8--8----8---8-8--8----8-8---3-3|
|8---8-8--8----8---8-8--8----8---8-8--8----8-8---3-3|
 U   U V  V    U   U V  V    U   U V  V    U V     

|-------------------------------------------------------|
|-------------------------------------------------------|
|7---7-7--7---7---7-7--7/12---12-12--12---12---12-12--12|
|7---7-7--7---7---7-7--7/12---12-12--12---12---12-12--12|
|0---0-0--0---0---0-0--0/10---10-10--10---10---10-10--10|
|0---0-0--0---0---0-0--0/10---10-10--10---10---10-10--10|
 U   U V  V   U   U V  V  U    U  V   V    U    U  V   V  

|---------------------------------------------------|
|---------------------------------------------------|
|10--1010-10---10--1010-10---10--1010-10---1010-----|
|10--1010-10---10--1010-10---10--1010-10---1010--3-3|
|8---8-8--8----8---8-8--8----8---8-8--8----8-8---3-3|
|8---8-8--8----8---8-8--8----8---8-8--8----8-8---3-3|
 U   U V  V    U   U V  V    U   U V  V    U V     

Guitar Solo Part
|-------------------------------------------------------|
|-------------------------------------------------------|
|7---7-7--7---7---7-7--7/12---12-12--12---12---12-12--12|
|7---7-7--7---7---7-7--7/12---12-12--12---12---12-12--12|
|0---0-0--0---0---0-0--0/10---10-10--10---10---10-10--10|
|0---0-0--0---0---0-0--0/10---10-10--10---10---10-10--10|
 U   U V  V   U   U V  V  U    U  V   V    U    U  V   V  

|---------------------------------------------------|
|---------------------------------------------------|
|10--1010-10---10--1010-10---10--1010-10---1010-----|
|10--1010-10---10--1010-10---10--1010-10---1010--3-3|
|8---8-8--8----8---8-8--8----8---8-8--8----8-8---3-3|
|8---8-8--8----8---8-8--8----8---8-8--8----8-8---3-3|
 U   U V  V    U   U V  V    U   U V  V    U V     

|-------------------------------------------------------|
|-------------------------------------------------------|
|7---7-7--7---7---7-7--7/12---12-12--12---12---12-12--12|
|7---7-7--7---7---7-7--7/12---12-12--12---12---12-12--12|
|0---0-0--0---0---0-0--0/10---10-10--10---10---10-10--10|
|0---0-0--0---0---0-0--0/10---10-10--10---10---10-10--10|
 U   U V  V   U   U V  V  U    U  V   V    U    U  V   V  

|---------------------------------------------------|-----|
|---------------------------------------------------|-----|
|10--1010-10---10--1010-10---10--1010-10---1010-----|-----|
|10--1010-10---10--1010-10---10--1010-10---1010--3-3|--0--|
|8---8-8--8----8---8-8--8----8---8-8--8----8-8---3-3|--0--|
|8---8-8--8----8---8-8--8----8---8-8--8----8-8---3-3|--0--|
 U   U V  V    U   U V  V    U   U V  V    U V     

If anybody has figured out the guitar solo, PLEASE PLEASE PLEASE SEND IT TO ME
I will give you credit for finding it out.
Please rate this tab

nagle5000@yahoo.com
Comments