Seether - Plastic Man Chords & Tabs

 

Plastic Man Chords & Tabs

Seether Chords & Tabs

Version: 1 Type: Tab 0 ratings
1 star 2 stars 3 stars 4 stars 5 stars
comments

Plastic Man Tab

   
Tunning
Eb
Bb
Gb
Db
Ab
Db

Intro/Verses
|--------1-0---------3------|
|------------------1---1----|
|------2---------0-------0--|
|----0-------0--------------|
|--------------3------------|
|--0------------------------|
[ Tab from: http://www.guitartabs.cc/tabs/s/seether/plastic_man_tab.html ]
Chorus
|------------------------------0-0-5-5-3-3-3-3--|
|------------------------------3-3-3-3-1-1-1-1--|
|--------7-------------5-------2-2-2-2-2-2-2-2--|
|------5---5---5-----3---3---3-0-0-0-0-0-0-0-0--|
|----5-------5-----3-------3---0-0-0-0-0-0-0-0--|
|--5-------------3-------------0-0-0-0-0-0-0-0--|

Bridge (not exact picking pattern)
|-------------------------------|
|--------0-------------0--------|
|------0---0---0-----2---2---2--|
|----2-------2-----2-------2----|
|--3-------------0--------------|
|-------------------------------|
Comments