Seether - Pig Chords & Tabs

 

Pig Chords & Tabs

Seether Chords & Tabs

Version: 1 Type: Tab 0 ratings
1 star 2 stars 3 stars 4 stars 5 stars
comments

Pig Tab

   
i saw thihs in the tab for the whole album "Diclaimer" and thought
i would make it easier to got to.

-------------------------------------------------------------------------------
			   10. Seether - Pig
-------------------------------------------------------------------------------
Tuning: Db,Ab,Db,Gb,Bb,Eb (c#)

| ---------------------------------------------------------------
| ---------------------------------------------------------------
| -----------------------------5b--------------------------------
| -x-x-x--x-x-x--x-x-x--x-x-x-----1pu0--0--1puo0-0-0-0-0--1-2-5--
| -x-x-x--x-x-x--x-x-x--x-x-x--3b-1pu0--0--1puo0-0-0-0-0--1-2----
| -x-x-x--x-x-x--x-x-x--x-x-x-----1pu0--0--1puo0-0-0-0-0--1-2-3--
Intro -
| --------------------------------------------------------------
| --------------------------------------------------------------
| --------------------------------------------------------------
| -1pu0--0--1puo0-0-0-0-0--1-2-5--x-x-x-x-1pu0--0--0-0-0--1-2-5-
| -1pu0--0--1puo0-0-0-0-0--1-2----x-x-x-x-1pu0--0--0-0-0--1-2---
| -1pu0--0--1puo0-0-0-0-0--1-2-3--x-x-x-x-1pu0--0--0-0-0--1-2-3-
[ Tab from: http://www.guitartabs.cc/tabs/s/seether/pig_tab.html ]
Intro (continued...)
| --------------------------------
| --------------------------------
| --------------------------------
| -1pu0--0--1pu0--0--0-0--0-1-2-5-
| -1pu0--0--1pu0--0--0-0--0-1-2---
| -1pu0--0--1pu0--0--0-0--0-1-2-3-

Verse
| -------------------------------
| -------------------------------
| --------------5b---------------
| -x-x-x--x-x-x------------------
| -x-x-x--x-x-x-3b---------------
| -x-x-x--x-x-x------------------

Prechorus
| ------------------------------------------------------------
| ------------------------------------------------------------
| ------------------------------------------------------------
| -0-0-0-0-0--0-1-1-1-1-3-3-3-3--0-0-0-0-0--0-1-1-1-1-5-5-5-5-
| -0-0-0-0-0--0-1-1-1-1-3-3-3-3--0-0-0-0-0--0-1-1-1-1-3-3-3-3-
| -0-0-0-0-0--0-1-1-1-1-3-3-3-3--0-0-0-0-0--0-1-1-1-1---------

Chours
| -------------------------------------------
| -------------------------------------------
| -------------------------------------------
| -1pu0--0--1pu0--0--0-0--0-1-2-5--0-0-0-0-0-
| -1pu0--0--1pu0--0--0-0--0-1-2----0-0-0-0-0-
| -1pu0--0--1pu0--0--0-0--0-1-2-3--0-0-0-0-0-
 
Bridge
| ---------------------------------------------------------------------
| ---------------------------------------------------------------------
| ---------------------------------------------------------------------
| -7-7-7-7-7-7-7-8-8-8-8-10-10-10-10-10---7-7-7-7-7-7-7-8-8-8-8-5-5-5-5
| -5-5-5-5-5-5-5-6-6-6-6--8--8--8--8--8---5-5-5-5-5-5-5-6-6-6-6-3-3-3-3
| ---------------------------------------------------------------------
Comments