Seether - Out Of My Way Chords & Tabs

 

Out Of My Way Chords & Tabs

Seether Chords & Tabs

Version: 2 Type: Bass Tab 0 ratings
1 star 2 stars 3 stars 4 stars 5 stars
comments

Out Of My Way Bass Tab

   
-------------------------------------------------------------------------------
	     Out of MY Way - Seether
-------------------------------------------------------------------------------

Tabbed By : Dustin Green
e-mail: Daysofdysfunction@gmail.com

Tuning: Drop D

	I  looked this tab up here on Ultimate-Guitar, and found it to be WRONG. So I figured I 
do it
 right. This song could easily be played straight tuned, I just find it better this way, 
better tone.


	-Intro/pre verse- This is the part of the song were the bass sticks out most. you can 
the
hammer/pulls with slides, sounds just as good. It also sounds like he slides down a few
notes after some of the notes.
                                                               (out of my way)
G|---------------------------------------------------------------------------|
D|---------------------------------------------------------------------------|
A|---------------------------------------------------------------------------|
D|-------3h6-6----6h8-8---11p10-10----10p8-8------3-3-3----------------------|
[ Tab from: http://www.guitartabs.cc/tabs/s/seether/out_of_my_way_btab_ver_2.html ]
	-verse-
 (I cant pass up this opertunity .....)
G|---------------------------------------------------------------------------|
D|---------------------------------------------------------------------------|
A|---------------------------------------------------------------------------|
D|----3-----6-----11----8-----(/16)------------------------------------------|
 	-chorus-
(Nobody's gonna stand in my way)
G|---------------------------------------------------------------------------|
D|---------------------------------------------------------------------------|
A|---------------------------------------------------------------------------|
D|-------3-3-3-3---8-8-8-8------6-6-6---6-6-6-6---3--3-----------------------|
	-bridge-

(you cant hold me down)
G|---------------------------------------------------------------------------|
D|---------------------------------------------------------------------------|
A|---------------------------------------------------------------------------|
D|------3-3---3-6-3----1-----------------------------------------------------|

	That's it, easy but fun. email me with any questions, comments, or if you would like a 
invite. I will try to look into all comments/corrections. I am also eagerly awaiting the 
bass tabs. I reserve the right to ignore the ignorant.

							-Dustin Green

|( ) optional note
| /  slide up
| \  slide down
| h  hammer-on
| p  pull-off
| ~  vibrato
| +  harmonic
| x  Mute note
===============================================================================
Comments