Seether - Needles Chords & Tabs

 

Needles Chords & Tabs

Seether Chords & Tabs

Version: 1 Type: Tab 0 ratings
1 star 2 stars 3 stars 4 stars 5 stars
comments

Needles Tab

   
Tabbed by:Jeremy Kowalczyk
Album:Disclaimer
tuning
x=hand mute
DADGBE

inTRO
     D
E---------------------------------
B----3----------------------------
G---2-----------------------------just keep hitting that util it gets 
D--0------------------------------into distortion!
A---------------------------------
D---------------------------------

CHorus
E-------------------------------------
B-------------------------------------
G------------------------------------xx
D--0h233p2p0----003p0-00003p0--555-5-11
A--0h233p2p0----003p0-00003p0--333-5-11
D--0h233p2p0----003p0-00003p0------5-11

Then you do the verse again but then for the last art of the
verse itkicks in with dstortion.............
E------------------------------
B------------------------------
G------------------------------
D--00--3333H5---00-555-0H23P2P0
A--00--3333H5---00-333-0H23P2P0
D--00--3333H5---00-----0H23P2P0
[ Tab from: http://www.guitartabs.cc/tabs/s/seether/needles_tab.html ]
tHEN IT GOES INTO THE CHORUS BUT AT THE END OF THE CHORUS U LET PLAY
THIS RIGHT BEFORE U GO ONTO THE BRIDGE.......
E----------------------
B----------------------
G----------------------
D1111-0---------1111-0-
A1111-0LET RING-1111-0-LET RiNG
D1111-0---------1111-0-

THEN
"FU!# YOU FOR KILLING ME"
E----------------------
B----------------------
G---XX----------XX-----
D--0003P223P22-000-----1
A--000---------000-2H3-1-THEN DOTHAT A FEW MORE TIMES
D--000---------000-----1

SOLO
E-------------------------------------
B--10----10----10-----------13--15--13
G-7--10-7--10-7--7SLIDEUP-10--10--10--
D-------------------------------------
A-------------------------------------
D-------------------------------------

SOLO CONTINUED'
E-------------------------------
B---10----10--8LET RING AND BEND
G--7--10-7--7-------------------
D-------------------------------
A-------------------------------
D-------------------------------

SOLO CONTINUED AGAIN
E--------------------------------------------------------
B-10101010101011010--------1313131313151515-101010-8888--
G--7777777777777777SLIDE UP1010101010101010--777-7-------
D--------------------------------------------------------
A--------------------------------------------------------
D--------------------------------------------------------

tELL ME IF I DID ANYTHING WRONG,
IM SURE I MESSED UP TABBING SOME OF THE PARTS.

JEREMY
Comments