Seether - Needles Chords & Tabs

 

Needles Chords & Tabs

Seether Chords & Tabs

Version: 1 Type: Bass Tab 0 ratings
1 star 2 stars 3 stars 4 stars 5 stars
comments

Needles Bass Tab

Band- Seether
Song- Needles

THIS IS DROPPED D TUNING,

Intro= Drums

Verse1
|--------------------------------------------------------------------|
|--------------------------------------------------------------------|
|----------------3--3--3-3-3-3-3h5-----------------3--3--3-----------|x4
|0--0--0-0-0-0-0-------------------0--0--0-0-0-0-0----------0--3*2p0-|

Chorus1
|-----------------------------------------------------|
|-----------------------------------------------------|
|----------------------3-3-3-3-3-3--------------------|x4
|0-00-3p2-00-000-3p2-0--------------5-5---------------|

Verse2
|--------------------------------------------------------------------|
|--------------------------------------------------------------------|
|----------------3--3--3-3-3-3-3h5-----------------3--3--3-----------|x2
|0--0--0-0-0-0-0-------------------0--0--0-0-0-0-0----------0--3*2p0-|

|--------------------------------------------|
|--------------------------------------------|
|----------3----3--------------3-------------|x2
|0----0--------------0----0---------0-3p2p0--|
[ Tab from: http://www.guitartabs.cc/tabs/s/seether/needles_btab.html ]
Chorus2
|-----------------------------------------------------|
|-----------------------------------------------------|
|----------------------3-3-3-3-3-3--------------------|x4
|0-00-3p2-00-000-3p2-0--------------5-5-0-------------|

" You're F*cking killing Me"
|-----------------------------------------------------|
|-----------------------------------------------------|
|-----------------------------------------------------|
|1-1-1-1-1-1-0---------------1-1-1-1-1-1-0------------|

|------------------------------------|
|------------------------------------|
|-------------------------3----3-----|x3
|00--3p2-0-3p2-0-00-----0----0-------|

|------------------------------------|
|------------------------------------|
|------------------------------------|
|00--3p2-0-3p2-0-00-----1-1-1-1-1-1-0|

|--------------------------------------------|
|--------------------------------------------|
|----------3----3--------------3-------------|x2
|0----0--------------0----0---------0-3p2p0--|

Chorus3
|-----------------------------------------------------|
|-----------------------------------------------------|
|----------------------3-3-3-3-3-3--------------------|x4
|0-00-3p2-00-000-3p2-0--------------5-5---------------|

|------------------------------------|
|------------------------------------|
|-------------------------3----3-----|x2
|00--3p2-0-3p2-0-00-----0----0-------|
Comments