Seether - Love Her Chords & Tabs

 

Love Her Chords & Tabs

Seether Chords & Tabs

Version: 2 Type: Tab 0 ratings
1 star 2 stars 3 stars 4 stars 5 stars
comments

Love Her Tab

Intro
|----5---------8----8--8-----3-----------|
|----5---------8----8--8-----3-------6p5-|
|----7--------10---10-10-------5---------|x2
|----7--------10---10-10-------5-7-7-----|
|-5-----0---8----------------3-0-5-5-----|
|----------------------------------------|

Verse 1 "I Met A Girl,Who Hated The World"
|----5---------8----8--8-----3-----------|
|----5---------8----8--8-----3-------6p5-|
|----7--------10---10-10-------5---------|x8
|----7--------10---10-10-------5-7-7-----|
|-5-----0---8----------------3-0-5-5-----|
|----------------------------------------|
                    x        x
Chorus 1 "You Could Love Her,If You Paid
|----------------------------------------------------------------|
|----------------------------------------------------------------|
|----------------------------------------------------------------|
|-5-5-5-3-3-3-3-3-5-5-5-8-8-8-8-8-5-5-5-3-3-3-3-3-8-8-8-5-5-5-5-5|x2
|-5-5-5-3-3-3-3-3-5-5-5-8-8-8-8-8-5-5-5-3-3-3-3-3-8-8-8-5-5-5-5-5|
|-3-3-3-1-1-1-1-1-3-3-3-6-6-6-6-6-3-3-3-1-1-1-1-1-6-6-6-3-3-3-3-3|

Interlude
|----5---------8----8--8-----3-----------|
|----5---------8----8--8-----3-------6p5-|
|----7--------10---10-10-------5---------|x2
|----7--------10---10-10-------5-7-7-----|
|-5-----0---8----------------3-0-5-5-----|
|----------------------------------------|

Verse 2 "Down on her knees,she bled on the floor"
|----5---------8----8--8-----3-----------|
|----5---------8----8--8-----3-------6p5-|
|----7--------10---10-10-------5---------|x8
|----7--------10---10-10-------5-7-7-----|
|-5-----0---8----------------3-0-5-5-----|
|----------------------------------------|
[ Tab from: http://www.guitartabs.cc/tabs/s/seether/love_her_tab_ver_2.html ]
Chorus 1 "You Could Love Her,If You Paid
|----------------------------------------------------------------|
|----------------------------------------------------------------|
|----------------------------------------------------------------|
|-5-5-5-3-3-3-3-3-5-5-5-8-8-8-8-8-5-5-5-3-3-3-3-3-8-8-8-5-5-5-5-5|x2
|-5-5-5-3-3-3-3-3-5-5-5-8-8-8-8-8-5-5-5-3-3-3-3-3-8-8-8-5-5-5-5-5|
|-3-3-3-1-1-1-1-1-3-3-3-6-6-6-6-6-3-3-3-1-1-1-1-1-6-6-6-3-3-3-3-3|

Solo
|-------8-----------|--------8---8---8-8---8-----|
|-5h6-6/8-8-5h6p53--|-3/5-5h6--6/8---8--10--10^10|
|-------------------|----------------------------|
|-------------------|----------------------------|
|-------------------|----------------------------|
|-------------------|----------------------------|

Verse 3 "She never found out,how much I tried"
|----5---------8----8--8-----3-----------|
|----5---------8----8--8-----3-------6p5-|
|----7--------10---10-10-------5---------|x4
|----7--------10---10-10-------5-7-7-----|
|-5-----0---8----------------3-0-5-5-----|
|----------------------------------------|

"You Could love her" "If You Paid"
|-------------------|-----------------------------------------------|
|-------------------|-----------------------------------------------|
|-------------------|-----------------------------------------------|
|-------------------|5-5-5-8-8-8-8-8-5-5-5-3-3-3-3-3-8-8-8-5-5-5-5-5|
|-------------------|5-5-5-8-8-8-8-8-5-5-5-3-3-3-3-3-8-8-8-5-5-5-5-5|
|-------------------|3-3-3-6-6-6-6-6-3-3-3-1-1-1-1-1-6-6-6-3-3-3-3-3|

Chorus 3 "You Could Love Her"
|----------------------------------------------------------------|
|----------------------------------------------------------------|
|----------------------------------------------------------------|
|-5-5-5-3-3-3-3-3-5-5-5-8-8-8-8-8-5-5-5-3-3-3-3-3-8-8-8-5-5-5-5-5|
|-5-5-5-3-3-3-3-3-5-5-5-8-8-8-8-8-5-5-5-3-3-3-3-3-8-8-8-5-5-5-5-5|
|-3-3-3-1-1-1-1-1-3-3-3-6-6-6-6-6-3-3-3-1-1-1-1-1-6-6-6-3-3-3-3-3|

Outro
|----5---------8----8--8-----3-----------|
|----5---------8----8--8-----3-------6p5-|
|----7--------10---10-10-------5---------|x2
|----7--------10---10-10-------5-7-7-----|
|-5-----0---8----------------3-0-5-5-----|

Fire_Death
Comments