Seether - Love Her Chords & Tabs

 

Love Her Chords & Tabs

Seether Chords & Tabs

Version: 1 Type: Tab 0 ratings
1 star 2 stars 3 stars 4 stars 5 stars
comments

Love Her Tab

Song: love her
Band: Seether

This is a cool song and that is why i had too tab it so here is the song it's not that hard
so you should get it, if not then email me if you have any problems feeblebase@yahoo.com

Tuning: drop D (DADGBE)
Intro: 
e|bar 1-----------------------|
B|---6-----10-----5-------6p5-|
G|---7-----10-----5-----------|
D|---7-----10-----5-----7-----|
A|-5---5-8----003---3-5-------|
D|----------------------------|

e|bar 2-------------------6p5-|
B|---6-----10-----5-----------|
G|---7-----10-----5-----7-----|
D|---7-----10-----5-----------|
A|-5---5-8----003---3-5-------|
D|----------------------------|

Verse: repeat the first bar
When the drums do a fill then the second guitar just strums the chords
you can listen for the rhythm

Chorus: listen for the rhythm these are the chords
e|--------------------------------------|
B|--------------------------------------|repeat this twice (the little ^ means
G|-------------7^-------------4h5p4p0--*|             you must bend the string)
D|-5--3--5--8-----5--3--8--5-----------*|
A|-5--3--5--8-----5--3--8--5------------|
D|-5--3--5--8-----5--3--8--5------------|
[ Tab from: http://www.guitartabs.cc/tabs/s/seether/love_her_tab.html ]
Verse 2 is the same as the intro the only difference is the extra guitar bit after the
chorus which is this:
G|-7^---|	if you have that effect that he uses cool!
		but if you don't just hit the string hard
		and bend it up and down while it rings you
		should get a similar effect out of it???

the rest of the verse is pretty much the same as the first verse
Hay! i already said that anyway the chorus is also the same as the first one
when that is done there is a short solo(-:b
here it is:

Guitar 1 just plays the intro part but just the first bar
here is the solo
e|-------8------------5--------8---8---8--------|
B|-5/6-8---8\-5h6p5-3----5/6-8---8---8---8-10^--|repeat this twice
G|---------------------------------------------*|
D|---------------------------------------------*|
A|----------------------------------------------|
D|----------------------------------------------|

then just play the verse till the chorus
then stop for 1/2 a count or something and then play the chorus
then end off this: play the first bar of the of intro then this
e|----------------------|
B|---6-----10-----5---5-|
G|---7-----10-----5---7-|
D|---7-----10-----5---7-|
A|-5---5-8----003---3-5-|
D|----------------------|

And that is it hope you enjoy it cause i did tabing it, it's very straight forward not backward
so shouldn't be that hard you just have too LISTEN TO THE SONG to get it right cool
Lank as a Plank Mellow as Jellow
Feabl M!nds
Comments