Seether - Hang On Chords & Tabs

 

Hang On Chords & Tabs

Seether Chords & Tabs

Version: 1 Type: Tab 0 ratings
1 star 2 stars 3 stars 4 stars 5 stars
comments

Hang On Tab

   
Artist: Seether
Song: Hang On
Album: Daredevil: The Album
 
Great new song from Seether!
regular tuning EADGbe low to high
[ Tab from: http://www.guitartabs.cc/tabs/s/seether/hang_on_tab.html ]
Intro/chorus
e------------------------------------|
b------------------------------------|
G------------------------------------|  x2 only the second time end with:5555
D-5-5-5555-8-8-88-3-3-33-3s5-5-3s5-5-|                                   3333
A-3-3-3333-6-6-66-1-1-11-1s3-3-1s3-3-|                                   3333
E-3-3-3333-6-6-66-1-1-11-1s3-3-1s3-3-|

verse/interlude
e---------------------------------|
b---------------------------------|
G-----5-------8-------3-------5---| repeat as needed
D-----5-------8-------3-------5---|
A---3---3---6---6---1---1---3---3-|
E-3-------6-------1-------3-------|

well, thats about it. its simple but a really good song. can't wait for the next cd.

i don't have an e-mail, so uh, don't e-mail me
Comments