Seether - Gift Chords & Tabs

 

Gift Chords & Tabs

Seether Chords & Tabs

Version: 4 Type: Tab

Gift Tab

   
Db Ab Db Gb Bb Eb

b - bend
h - hammer
s - slide

Main riff
Pt. 1
|--------------------------------------|
|--------------------------------------|
|-------5---------4---------2-2-0---0--|
|----7---7------5--5-----3-------3---3-|
|-7---7----7--5--5---5-3--3-------3----|
|--------------------------------------|

Pt. 2

|----------------------------------0-|
|----------------------------------0-|
|-------5---------4---------2-2-0--0-|
|----7---7------5--5-----3-------3---|
|-7---7----7--5--5---5-3--3----------|
|------------------------------------|

Guitar 2

|-7----5-----------------------------|
|---8---5-5s8------------------------|
|------------------------------------|
|------------------------------------|
|------------------------------------|
|------------------------------------|

Verse

Pt. 1
|--------------------------------------|
|--------------------------------------|
|-------5---------4---------2-2-0---0--|
|----7---7------5--5-----3-------3---3-|
|-7---7----7--5--5---5-3--3-------3----|
|--------------------------------------|

Pt. 2

|----------------------------------0-|
|----------------------------------0-|
|-------5---------4---------2-2-0--0-|
|----7---7------5--5-----3-------3---|
|-7---7----7--5--5---5-3--3----------|
|------------------------------------|

Pre Chorus
[ Tab from: http://www.guitartabs.cc/tabs/s/seether/gift_tab_ver_4.html ]
|------------------------------------|
|------------------------------------|
|------------------------------------|
|-5555-7777-3333---------------------|
|-5555-7777-3333---------------------|
|-5555-7777-3333---------------------|

Guitar 2

|-8----------8-----------------------|
|--8--6-8-6-5---8-8-10-8-------------|
|------------------------------------|
|------------------------------------|
|------------------------------------|
|------------------------------------|

Chorus

Pt. 1
|--------------------------------------------------|
|--------------------------------------------------|
|--------------------------------------------------|
|-10-10-10-5-5-5-5-3-3-3-3---7-7-7-5-5-5-5-3-3-3-3-|
|-10-10-10-5-5-5-5-3-3-3-3---7-7-7-5-5-5-5-3-3-3-3-|
|-10-10-10-5-5-5-5-3-3-3-3---7-7-7-5-5-5-5-3-3-3-3-|

Pt. 2
|--------------------------------------------------|
|--------------------------------------------------|
|--------------------------------------------------|
|-10-10-10-5-5-5-5-3-3-3-3---5-5-5-7-7-7-7-3-3-3-3-|
|-10-10-10-5-5-5-5-3-3-3-3---5-5-5-7-7-7-7-3-3-3-3-|
|-10-10-10-5-5-5-5-3-3-3-3---5-5-5-7-7-7-7-3-3-3-3-|

Solo

|-8---------------------------------|
|--8-6-8-6-5--6-5-3-5-1-5-6b-1h3-1b-|
|-----------------------------------|
|-----------------------------------|
|-----------------------------------|
|-----------------------------------|