Seether - Gift Chords & Tabs

 

Gift Chords & Tabs

Seether Chords & Tabs

Version: 2 Type: Tab 0 ratings
1 star 2 stars 3 stars 4 stars 5 stars
comments

Gift Tab

-------------------------------------------------------------------------------
			     The gift -- seether
-------------------------------------------------------------------------------
Tabbed by:  scott
Email: ss-freed@wiu.edu

Tuning: drop d

Intro/versesóclean on this part

e|------------------------------------------------------------------------------|
B|------------------------------------------------------------------------------|
G|-------------4----------------3---------------1---1---------------------------|
D|-------6--------6--------4-------4---------2---------4---2--------4---2-------|
A|----6----(6)-------6---4---(4)------4----2-------------------(2)--------------|
E|------------------------------------------------------------------------------|

e|------------------------------------------------------------------------------|
B|-----------------------------------------------------------------4------------|
G|------------4------------------3--------------1----1-------------4------------|
D|------6-------6--------4----------4---------2---------4---2-------------------|
A|---6-----(6)-----6---4-----(4)-------4---2------------------------------------|
E|------------------------------------------------------------------------------|

Play that twice; while that is playing the second time, pat plays this (twice)
e|-----------------------------------------------------------------------------|
B|----/11--------/9------------------------------------------------------------|
G|---------11--------8-----/11---let ring--------------------------------------|
D|-----------------------------------------------------------------------------|
A|---------USE DISTORTION ON THIS PART-----------------------------------------|
E|-----------------------------------------------------------------------------|
[ Tab from: http://www.guitartabs.cc/tabs/s/seether/gift_tab_ver_2.html ]
Pre-chorus thing(clean): "I'm out of reason to believe in me..."
e|---------------------------------------------------------------------------|
B|---------------------------------------------------------------------------|
G|---6------8----------------------------------------------------------------|
D|---4------6-----------2----------------------------------------------------|
A|---4------6-----------2----------------------------------------------------|
E|---4------6----(9)----2----------------------------------------------------|

e|---------------------------------------------------------------------------|
B|----/12-----------------------/12------------------------------------------|
G|---------9----11-----9----8--------9-----11h13p11--------------------------|
D|---------------------------------------------------------------------------|
A|--------------DISTORTION---------------------------------------------------|
E|---------------------------------------------------------------------------|

Twice through on the prechorus and then this chorus with distortion:
e|---------------------------------------------------------------------------|
B|---------------------------------------------------------------------------|
G|---4-4-4-4-4---------------------------------------------------------------|
D|---4-4-4-4-4--4-4-4-4-4--2-2-2-2-2------66666----44444---22222-------------|
A|---2-2-2-2-2--4-4-4-4-4--2-2-2-2-2------66666----44444---22222-------------|
E|--------------4-4-4-4-4--2-2-2-2-2------66666----44444---22222-------------|

e|---------------------------------------------------------------------------|
B|---------------------------------------------------------------------------|
G|--44444--------------------------------------------------------------------|
D|--44444--44444---22222----------44444---66666---22222----------------------|
A|--22222ó-44444---22222----------44444---66666---22222----------------------|
E|---------44444---22222----------44444---66666---22222----------------------|

Last little solo thing...this is played for the last minute or so of the song
e|---------------------------------------------------------------------------|
B|-/12-----------------------------------------------------------------------|
G|-----9---11--9--8--9--8------------------11b---8\6-------------------------|
D|------------------------11---9--8----/11b-------------9--------------------|
A|---------------------------------------------------------------------------|
E|-----------------AGAIN, DISTORTION!!---------------------------------------|


A quick note:  while that last solo is playing at the end, the rhythm behind it is:

 6   4   2
 6   4   2
 6   4   2

Another quick note:  the () indicates a "ghost note" you can hear it being played, but 
is very quick..just listen to their cd..it's a good one, anyway!
Comments