Seether - Gasoline Chords & Tabs

 

Gasoline Chords & Tabs

Seether Chords & Tabs

Version: 4 Type: Tab 0 ratings
1 star 2 stars 3 stars 4 stars 5 stars
comments

Gasoline Tab

   
Tabbed by David Myers
Drop D tuning- D,a,D,g,b,e

intro
e--------------------------------------------------
b--------------------------------------------------
g--------------------------------------------------  
d-2--2-xx-x-x-x-x-xx-------------------------------   4 times
a-2--2-xx-x-x-x-x-xx-------------------------------
D-2--2-xx-x-x-x-x-xx-------------------------------

2nd part to intro or verse
e-------------------------------------------------------
b-------------------------------------------------------
g-------------------------------------------------------
d-2--2-x------7-7-5-7-7/9-5-----------------------------   4 times
a-2--2-x------------------------------------------------
D-2--2-x------------------------------------------------

play intro again 8 times

Chorus

e-----------------------------------------------------------
b-----------------------------------------------------------
g----------5/7-7-7------------------------------------------ 
d-2--2-x---5/7-7-7--5-55555---------------------------------    4 times
a-2--2-x---3/5-5-5--5-55555---------------------------------
D-2--2-x------------5-55555---------------------------------
[ Tab from: http://www.guitartabs.cc/tabs/s/seether/gasoline_tab_ver_4.html ]
2nd part to intro or verse- play 4 times

then play again 2 times

play intro- 4 times

Chorus- 4 times

" she's got no one to hate, except for me!!!!!"
e----------------------------------------------------------------
b----------------------------------------------------------------
g---------7/6-66/55/4-4/3----------------------------------------
d-2--2----7/6-66/55/4-4/3---------------------------------------- 4 times
a-2--2----5/4-44/33/2-2/1----------------------------------------
D-2--2-----------------------------------------------------------

litte medley thing
e----------------------------------------------------------
b----------------------------------------------------------
g---9-9-9-9-9-9-9-9-9-9-9-9-9-7-7-7-7/9--------------------
d----------------------------------------------------------
a----------------------------------------------------------
D----------------------------------------------------------

play intro- 4 times

Chorus- 4 times then 4 more times

Outro- using wah pedal or bending string either way
e---------------------------------
b---------------------------------
g---9-9-9-repeating---------------
d---------------------------------
a---------------------------------
D---------------------------------
Comments