Seether - Gasoline Chords & Tabs

 

Gasoline Chords & Tabs

Seether Chords & Tabs

Version: 2 Type: Tab 0 ratings
1 star 2 stars 3 stars 4 stars 5 stars
comments

Gasoline Tab

#----------------------------------PLEASE NOTE---------------------------------#
#This file is the author's own work and represents their interpretation of the #
#song. You may only use this file for private study, scholarship, or research. #
#------------------------------------------------------------------------------##

SARON GAS - GASOLINE
====================

Tabbed By : Lourens Venter
e-Mail comments to : aztek@mailbox.co.za

X = Dead Note
/ = Slide up
\ = Slide down


INTRO RIFF
==========

e|------------------------------------------------------------------------------------------|
B|------------------------------------------------------------------------------------------|
G|-------------------------------------------9-9-7-7-7-/10-10-10-------9-9-7-7-7-/11-11-11--|
D|--2-2--X-X-X-X-X-X-X--2-2--X-X-X-X-X--2-2--X-X-X-X-X-/-X--X--X--2-2--X-X-X-X-X-/-X--X--X--|
A|--2-2--X-X-X-X-X-X-X--2-2--X-X-X-X-X--2-2--7-7-5-5-5-/-8--8--8--2-2--7-7-5-5-5-/-9--9--9--|
E|--X-X--X-X-X-X-X-X-X--X-X--X-X-X-X-X--X-X-----------------------X-X-----------------------|
                                        |______________________|       
                                               Repeat x 3                            


VERSES
======
[ Tab from: http://www.guitartabs.cc/tabs/s/seether/gasoline_tab_ver_2.html ]
e|--------------------------------------|
B|--------------------------------------|
G|--------------------------------------|   
D|--2-2------2-2------2-2--X-X-X-X-X-X--|
A|--2-2------2-2------2-2--X-X-X-X-X-X--|
E|--X-X------X-X------X-X--X-X-X-X-X-X--|
                     |________________|                               
   then play this -->    Repeat x 4 


CHORUS 1
========

e|------------------------------------------------------------------------------|
B|------------------------------------------------------------------------------|
G|-------5/7-7-------------------9-9-7-7-7-/10-10-10-------9-9-7-7-7-/11-11-11--|
D|--2-2--5/7-7-X-5-X-5-X----2-2--X-X-X-X-X-/-X--X--X--2-2--X-X-X-X-X-/-X--X--X--|
A|--2-2--3/5-5-X-5-X-5-X----2-2--7-7-5-5-5-/-8--8--8--2-2--7-7-5-5-5-/-9--9--9--|
E|--X-X--3/5-5-X-3-X-3-X----X-X-----------------------X-X-----------------------|
   |____________________|  |________________________|   
        Repeat x 4                   Repeat x 3
    

CHORUS 2
========

e|-------------------------------------------------------|
B|-------------------------------------------------------|
G|-------5/7-7------------------7-7-7-7\6-6-6-6\5-5-5-5--|
D|--2-2--5/7-7-X-5-X-5-X---2-2--7-7-7-7\6-6-6-6\5-5-5-5--|
A|--2-2--3/5-5-X-5-X-5-X---2-2--5-5-5-5\4-4-4-4\3-3-3-3--|
E|--X-X--3/5-5-X-3-X-3-X---X-X--5-5-5-5\4-4-4-4\3-3-3-3--|
    |___________________| |____________________________|    
        Repeat x 4                 Repeat x 4


CHORUS 3
========

e|------------------------|
B|------------------------|
G|-------5/7-7------------|
D|--2-2--5/7-7-X-5-X-5-X--|
A|--2-2--3/5-5-X-5-X-5-X--|
E|--X-X--3/5-5-X-3-X-3-X--|
    |___________________|     
       Repeat till end    


That's it, have fun jamming this one. It's easy to play and it sounds f*cking awesome.



---------------------------
 This file passed through:
       Absolute Tabs
   http://www.tabs.co.za
---------------------------
Comments